top separator

Home

Forum

What's New

Submit a Tab

FAQ

Links

Contact Us

Link to Us

MetalTabs.com logo

Bands

0-9

A

B

C

D

E

F

G

H

I

J

K

L

M

N

O

P

Q

R

S

T

U

V

W

X

Y

Z

Search

What

Where
 

Mourning Beloveth - "All Hope Is Pleading" Guitar Tab

Plain Text Version
More Mourning Beloveth Tabs

Hits: 3727
Rated: 5.00 out of 5 (20 votes)
Updated: 2006-12-18 01:04:08

 

By:

Paddy

sendpm.gif

email.gif

Important note
This tab is available online because we obtained explicit permission from Mourning Beloveth or their label.


#----------------------------------PLEASE NOTE---------------------------------#
#This file is the author's own work and represents their interpretation of the #
#song. You may only use this file for private study, scholarship, or research. #
#Unless specified otherwise, this is NOT an official tab from the band members.#
#------------------------------------------------------------------------------#

  Visit MetalTabs.com for more metal tablature
  
================================================================================
                       M O U R N I N G   B E L O V E T H

                                       -

                    A L L   H O P E   I S   P L E A D I N G
================================================================================


                                      DUST
                           (c) Sentinel Records - 2000
                        http://www.mourningbeloveth.com/


                              Tune Down 1 & 1/2 Steps
                                  C# F# B E G# C#

                                 Tempo = 128 BPM
                               Time Signature = 6/4



                          -----------------------------
                                 Transcribed by

                                 PADDY MCMULLAN
                           stinkypoohpants@yahoo.co.uk

                                   Version 1.5
                     (Corrections Outlined at Bottom of Tab)
                             -----------------------

                             Tablature Symbols Used:


 P.M...    -  Palm Mute
 p         -  Pull-Off
 h         -  Hammer-On
 S.H       -  Semi-Harmonic
 (/)       -  Legato Slide (Blank space indicates length of slide)
 \         -  Slide Down to/Down From (Blank space indicates length of slide)
 /         -  Slide Up To/Up From (Blank space indicates length of slide)
 ( )       -  Ghost Note/Tied Note/Implied Note
 REST      -  Rest and sustain rest for duration of blank space



================================================================================
Riff 1a: Guitar 1 with heavy distortion (Play 4 times)
================================================================================


||-----------------------------------|--------------------------------------|
||-----------------------------------|--------------------------------------|
||-----------------------------------|--------------------------------------|
||-----------9--7--9------10--9h 10--|---------------(7/10)---9h10p9--------|
||--7\      -------------------------|--7\          ------------------10----|
||-----------------------------------|--------------------------------------|


|-----------------------------------|--------------------------------------|
|-----------------------------------|--------------------------------------|
|-----------------------------------|--------------------------------------|
|--12------------12--10----9h   10--|--10--------7--9--(9/10)-----9--7h 9--|
|-----------------------------------|--------------------------------------|
|-----------------------------------|--------------------------------------|


|-----------------------------------|----------------------------------|
|-----------------------------------|----------------------------------|
|-----------------------------------|----------------------------------|
|-----------9--7--9------10--9h 10--|----------------------------------|
|--7\      -------------------------|--7\          -(5/7)---9----10----|
|-----------------------------------|----------------------------------|


|----------------------------------|------------------------------------| |
|----------------------------------|------------------------------------| |
|----------------------------------|------------------------------------|*|
|----------------------------------|------------------10------9---------|*|
|--10------------10----12----10----|--9--------9--10-------------10--9--| |
|----------------------------------|------------------------------------| |



On the last repeat, replace the last bar wth the following:


                                        S.H
       |-------------------------------------||
       |---------------------------------*---||
       |--------------------------------<9>--||
       |------------------10------9--9-------||
       |--9--------9--10---------------------||
       |-------------------------------------||



================================================================================
Riff 1b: Guitar 2 with heavy distortion (Play once through)
================================================================================


||------------------------------|------------------------------|
||----------------R-           -|----------------R-           -|
||----------------E-           -|----------------E-           -|
||--(9\       2)--S-           -|--(9\       2)--S-           -|
||--(7\       2)--T-           -|--(7\       2)--T-           -|
||--(7\       0)----------------|--(7\       0)----------------|


|-------------------|-----------------------|-------------------------|
|-------------------|-----------------------|----------------R-      -|
|-------------------|--4--------------------|----------------E-      -|
|--5----------------|--4--------------------|--(9\       2)--S-      -|
|--5----------------|--2----------------(2)/|--(7\       2)--T-      -|
|--3----------------|-----------------------|--(7\       0)-----------|


|------------------------------|-------------------|
|----------------R-           -|-------------------|
|----------------E-           -|-------------------|
|--(9\       2)--S-           -|--5----------------|
|--(7\       2)--T-           -|--5----------------|
|--(7\       0)----------------|--3----------------|


|---------------------------------||
|---------------------------------||
|--4------------------------------||
|--4------------------------------||
|--2--------0--2--3------2--0--2--||
|---------------------------------||



================================================================================
Guitar 1 plays Riff 1a 3 times while guitar 2 plays Riff 2
================================================================================


================================================================================
Riff 2: Guitar 2 (Play 3 times)
================================================================================


||---------------------------------|--------------------------------|
||---------------------------------|--------------------------------|
||---------------------------------|--------------------------------|
||--9\      -----------------------|--9\          ------------------|
||--7\      -2--0--2------3--2--3--|--7\          -3----2h3p2-------|
||--7\      -----------------------|--7\          -------------3----|


|-------------------------------|---------------------------------|
|-------------------------------|---------------------------------|
|-------------------------------|---------------------------------|
|-------------------------------|---------------------------------|
|--5------------5--3----2----3--|--3--------0--2--3------2--0--2--|
|-------------------------------|---------------------------------|
                                            P.M..

|---------------------------------|------------------------------|
|---------------------------------|------------------------------|
|---------------------------------|------------------------------|
|--9\      -----------------------|--9\          ----------------|
|--7\      -2--0--2------3--2--3--|--7\          -2----4----5----|
|--7\      -----------------------|--7\          -0----2----3----|


|--------------------------------|---------------------------------| |
|--------------------------------|---------------------------------| |
|--------------------------------|---------------------------------|*|
|--------------------------------|---------------------------------|*|
|--5------------5---(5/7)---5----|--4--------------3------2--------| |
|--3------------3---(3/5)---3----|--2--------2--3------------3--2--| |



================================================================================
Riff 3a: Guitar 1 (Play once through)
================================================================================


  1                               2
||-------------------------------|-------------------------------------|
||-------------------------------|-------------------------------------|
||-------------------------------|-------------------------------------|
||---------------5-------(5)p 0--|--(5/ 7)----------(5/7)---9----10----|
||--7----------------------------|-------------------------------------|
||-------------------------------|-------------------------------------|

 3                                        4
|----------------------------------------|-------------------------------|
|----------------------------------------|-------------------------------|
|----------------------------------------|-------------------------------|
|--(9/10)   \  -7--5--7------7--(7/ 10)--|-------------------------------|
|----------------------------------------|------------------7------------|
|----------------------------------------|--8------8--8--8---------------|

 5                                      6
|--------------------------------------|----------------------------------|
|--------------------------------------|----------------------------------|
|--------------------------------------|----------------------------------|
|--7--------(7)\  -5------10---9h10p9--|--7------------(5/7)---9----10----|
|--------------------------------------|----------------------------------|
|--------------------------------------|----------------------------------|

 7                                        8
|----------------------------------------|-------------------------------|
|----------------------------------------|-------------------------------|
|----------------------------------------|-------------------------------|
|--(9/10)-------7p 5--7------7--(7/ 10)--|-------------------------------|
|----------------------------------------|------------------7------------|
|----------------------------------------|--8------8--8--8---------------|

 9                                 10
|---------------------------------|---------------------------------------|
|---------------------------------|---------------------------------------|
|---------------------------------|---------------------------------------|
|-/7     p    0--5--------(5)p 0--|--(5/ 7)----------(5/7)---5h7-5--------|
|---------------------------------|----------------------------------7----|
|---------------------------------|---------------------------------------|

 11                                12
|---------------------------------|-------------------------------|
|---------------------------------|-------------------------------|
|---------------------------------|-------------------------------|
|---------------------------------|-------------------------------|
|--8------------------8--(8/ 10)--|------------------7------------|
|---------------------------------|--8------8--8--8---------------|

 13                                14
|---------------------------------|---------------------------------------|
|---------------------------------|---------------------------------------|
|---------------------------------|---------------------------------------|
|-/7     p    0--5--------(5)p 0--|--(5/ 7)----------(5/7)---5h7-5--------|
|---------------------------------|----------------------------------7----|
|---------------------------------|---------------------------------------|

 15                              16
|-------------------------------|-------------------------------|
|-------------------------------|-------------------------------|
|-------------------------------|-------------------------------|
|-------------------------------|-------------------------------|
|--8------------------8--8h 10--|------------------7------------|
|-------------------------------|--8------8--8--8---------------|

 17                                      18
|---------------------------------------|-----------------------------------|
|---------------------------------------|-----------------------------------|
|---------------------------------------|-----------------------------------|
|--7----------(7/10)-10--9----7--9--10--|--7    p     0--(5/7)---9----10----|
|---------------------------------------|-----------------------------------|
|---------------------------------------|-----------------------------------|

 19                                       20
|----------------------------------------|-------------------------------|
|----------------------------------------|-------------------------------|
|----------------------------------------|-------------------------------|
|--(9/10)-------7p 5--7------7--(7/ 10)--|-------------------------------|
|----------------------------------------|------------------7------------|
|----------------------------------------|--8------8--8--8---------------|

 21                                   22
|------------------------------------|-----------------------------------|
|------------------------------------|-----------------------------------|
|------------------------------------|-----------------------------------|
|--7--------7\  -5------10---9h10p9--|--7    p     0--(5/7)---9----10----|
|------------------------------------|-----------------------------------|
|------------------------------------|-----------------------------------|

 23                                       24
|----------------------------------------|----------------------------||
|----------------------------------------|----------------------------||
|----------------------------------------|----------------------------||
|--(9/10)-------7p 5--7------7--(7/ 10)--|----------------------------||
|----------------------------------------|---------------7------------||
|----------------------------------------|--8-------------------------||



================================================================================
Riff 3b: Guitar 2 (Play 6 times)
================================================================================


||----------------------------|------------------------------|
||----------------------------|------------------------------|
||----------------------------|------------------------------|
||----------------------------|------------------------------|
||--7------------5------------|--7------------7----5----7----|
||--5------------3------------|--5-----------(5)--(5)--(5)---|


|------------------------------|----------------------------| |
|------------------------------|----------------------------| |
|------------------------------|----------------------------|*|
|------------------------------|--5-------------------------|*|
|--3--------------3------------|--3------------2------------| |
|--1--------1--1--1------------|---------------0------------| |
            ....


================================================================================
Riff 4a: Guitar 1 (Play 2 times) [Time Signature = 4/4]
================================================================================


  1                    2                   3
||--------------------|-------------------|--------------------|
||--------------------|-------------------|--------------------|
||--------------------|-------------------|-----------0--------|
||-----------2--------|--2----------------|--5--------5--------|
||--2--------2--------|--2----------------|--x-----------------|
||--0--------0--------|--0----------------|--3-------(3)-------|

 4                    5                      6
|--------------------|----------------------|---------------------------|
|--------------------|----------------------|---------------------------|
|--------------------|----------------------|---------------------------|
|--9--------9--------|------------2---------|---------------------------|
|--x--------x--------|-----------------2----|--(2/ 3)--2--0--2----0h 2--|
|--7--------7--------|--0----0--------------|---------------------------|

 7                         8                    9
|-------------------------|--------------------|--------------------|
|-------------------------|--------------------|--------------------|
|-------------------------|--------------------|--------------------|
|-------5----(5/7)-----5--|--4~~---------------|--------------------|
|--3----------------------|---------------5 \--|--2--------2--------|
|-------------------------|--------------------|--0--------0--------|

 10                  11                   12
|-------------------|--------------------|--------------------|
|-------------------|--------------------|--------------------|
|-------------------|--------------------|--------------------|
|--2----------------|--5--------5--------|--9-----------------|
|--2----------------|--x--------x--------|--x--------9--------|
|--0----------------|--3--------3--------|--7-----------------|

 13                     14
|----------------------|---------------------------|
|----------------------|---------------------------|
|----------------------|---------------------------|
|------------2---------|---------------------------|
|-----------------2----|--(2/ 3)--2--0--2----0h 2--|
|--0----0--------------|---------------------------|

 15                        16
|-------------------------|--------------------| |
|-------------------------|--------------------| |
|-------------------------|--------------------|*|
|-------5----(5/7)-----5--|--4~~---------------|*|
|--3----------------------|--------------------| |
|-------------------------|--------------------| |



================================================================================
Riff 4b: Guitar 2 (Play 2 times)
================================================================================


  1                    2                   3
||--------------------|-------------------|----------------------|
||--------------------|-------------------|----------------------|
||--------------------|-------------------|----------------------|
||--------------------|--2----------------|--4h 5--4--------2----|
||--2--------2--------|-------------------|----------------------|
||--0--------0--------|-------------------|----------------------|

 4                      5                   6
|----------------------|-------------------|------------------|
|----------------------|-------------------|------------------|
|----------------------|-------------------|------------------|
|--(2/ 5)-----7--------|--2----------------|--(2)-------------|
|----------------------|--2----------------|--(2)-------------|
|----------------------|--0----------------|--(0)-------------|

 7                   8                   9
|-------------------|-------------------|--------------------|
|-------------------|-------------------|--------------------|
|-------------------|--4----------------|--------------------|
|--5----------------|--4----------------|--------------------|
|--5----------------|--2----------------|--2--------2--------|
|--3----------------|-------------------|--0--------0--------|

 10                  11                     12
|-------------------|----------------------|-----------------------|
|-------------------|----------------------|-----------------------|
|-------------------|----------------------|-----------------------|
|--2----------------|--4h 5--4--------2----|--(2/ 5)------4--------|
|-------------------|----------------------|-----------------------|
|-------------------|----------------------|-----------------------|

 13                  14                 15
|-------------------|------------------|-------------------|
|-------------------|------------------|-------------------|
|-------------------|------------------|-------------------|
|--2----------------|--(2)-------------|--5----------------|
|--2----------------|--(2)-------------|--5----------------|
|--0----------------|--(0)-------------|--3----------------|

 16
|-------------------| |
|-------------------| |
|--4----------------|*|
|--4----------------|*|
|--2----------------| |
|-------------------| |



================================================================================
Riff 5a: Guitar 1 (Play 2 times) [Time Signature = 6/4] [Tempo = 90 BPM]
================================================================================


||-------------------------------------------------------------------------|
||-------------------------------------------------------------------------|
||-------------------------------------------------------------------------|
||--12--12-12-12-12-12-12--12-12-9-9-9-9--10-10-10-10-10-10--10-10-10-10-7-|
||--0---0--0--0--0--0--0---0--0--0-0-0-0--0--0--0--0--0--0---0--0--0--0--0-|
||-------------------------------------------------------------------------|
        ..............     ...........    ..............     ..............

|--------------------------------------------------------------|
|--------------------------------------------------------------|
|--------------------------------------------------------------|
|--7-9-9-9-9-9-5-5-7-7-7-7-7-2-2-2-2-2-3-3-3-3-5-5-5-5-5-5-5-5-|
|--0-0-0-0-0-0-0-0-0-0-0-0-0-0-2-2-2-2-3-3-3-3-5-5-5-5-5-5-5-5-|
|--------------------------------------------------------------|
  ............................................................

|---------------------------------------------------|
|---------------------------------------------------|
|---------------------------------------------------|
|--3------------3--3---------3------------3-2--2--2-|
|--3--3-3-3-3-3-3--3-3-3-3-3-3--3-3-3-3-3-3-2--2--2-|
|--1--1-1-1-1-1-1--1-1-1-1-1-1--1-1-1-1-1-1-0--0--0-|
      .........    .........    .........

|-------------------------------------------------| |
|-------------------------------------------------| |
|-------------------------------------------------|*|
|--3------------3--3---------3---3-----5--5-5-----|*|
|--3--3-3-3-3-3-3--3-3-3-3-3-3---3-----5--5-5-----| |
|--1--1-1-1-1-1-1--1-1-1-1-1-1---1-0-0-3--3-3-3-3-| |
      .........    .........       ...        ...



================================================================================
Riff 5b: Guitar 2 (Play 10 times)
================================================================================


||------------------|-------------------------------|
||--R-             -|--R-         ------------------|
||--E-             -|--E-         ------------------|
||--S-             -|--S-         -2---3---5---5--2-|
||--T-             -|--T-         -2---3---5---5--2-|
||------------------|--------------0---1---3---3--0-|


|---------------------------------------------------|
|---------------------------------------------------|
|---------------------------------------------------|
|--3------------3--3---------3------------3-2--2--2-|
|--3--3-3-3-3-3-3--3-3-3-3-3-3--3-3-3-3-3-3-2--2--2-|
|--1--1-1-1-1-1-1--1-1-1-1-1-1--1-1-1-1-1-1-0--0--0-|
      .........    .........    .........

|-------------------------------------------------| |
|-------------------------------------------------| |
|-------------------------------------------------|*|
|--3------------3--3---------3---3-----5--5-5-----|*|
|--3--3-3-3-3-3-3--3-3-3-3-3-3---3-----5--5-5-----| |
|--1--1-1-1-1-1-1--1-1-1-1-1-1---1-0-0-3--3-3-3-3-| |
      .........    .........       ...        ...



NOTE: This riff is identicle to riff 5a, except the first two bars are played
as shown in riff 5b.  All subsequent repeats are to be played as riff 5a.



================================================================================
Riff 5c: Guitar 2 (Play once through)
================================================================================


*This riff begins after riff 5a finishes, and during riff 5b*

  1
||---------------------------------------|
||---------------------------------------|
||--7---------7h9p7----------------------|
||------------------(9/ 10)--------(10)\-|
||---------------------------------------|
||---------------------------------------|

 2                                      3
|--------------------------------------|-------------------------------|
|--------------------------------------|-------------------------------|
|--------------------------------------|-------------------------------|
|--7h 9----5h 7------------------------|----------------3------2-------|
|------------------7---8---10---10-8-7-|---------3-----------------3---|
|--------------------------------------|--1----------------------------|

 4
|----------------------------------------|
|----------------------------------------|
|----------------------------------------|
|--7--------------10-10-10-10-10--9------|
|------------------------------------10--|
|----------------------------------------|

 5                                       6
|---------------------------------------|--------------------------------------|
|---------------------------------------|--------------------------------------|
|--7---------7h9p7----------------------|--------------------------------------|
|------------------(9/ 10)--------(10)\-|--7h 9----5h 7------------------------|
|---------------------------------------|------------------7---8---10---10-8-7-|
|---------------------------------------|--------------------------------------|

 7                               8
|-------------------------------|---------------------------------------|
|-------------------------------|---------------------------------------|
|-------------------------------|---------------------------------------|
|----------------3------2-------|--7--------------10-10-10-10-10--9--7--|
|---------3-----------------3---|---------------------------------------|
|--1----------------------------|---------------------------------------|

 9                               10
|-------------------------------|-------------------------------------|
|-------------------------------|-------------------------------------|
|-------------------------------|-------------------------------------|
|--9--------7--9---10-----------|--9--------7--9---10---12--9----10-9-|
|-------------------------------|-------------------------------------|
|-------------------------------|-------------------------------------|

 11
|-----------------------------------------|
|-----------------------------------------|
|-------------------7-5-7-------------9-9-|
|--10------------------------7-5-7--------|
|--------10-9-10--------------------------|
|-----------------------------------------|

 12
|---------------------------------------------|
|---------------------------------------------|
|--9--10--9-----------------------------------|
|------------10--------10-10-12-10-9--9-9-9-7-|
|---------------------------------------------|
|---------------------------------------------|

 13                              14
|-------------------------------|-------------------------------------|
|-------------------------------|-------------------------------------|
|-------------------------------|--------------------------------10-9-|
|--9--------7--9---10-----------|--9--------7--9---10---12--9---------|
|-------------------------------|-------------------------------------|
|-------------------------------|-------------------------------------|

 15
|-------------------------------------------|
|-------------------8-6-8-------------10-10-|
|--10------------------------7-5-7----------|
|--------10-9-10----------------------------|
|-------------------------------------------|
|-------------------------------------------|

 16
|-----------------------------------------------|
|--10--11--10-----------------------------------|
|--------------10--------10-10-12-10-9--9-9-9-7-|
|-----------------------------------------------|
|-----------------------------------------------|
|-----------------------------------------------|

 17                              18
|-------------------------------|-------------------------------------|
|-------------------------------|-------------------------------------|
|-------------------------------|-------------------------------------|
|--9--------7--9---10-----------|--9--------7--9---10---12--9----10-9-|
|-------------------------------|-------------------------------------|
|-------------------------------|-------------------------------------|

 19
|-----------------------------------------|
|-----------------------------------------|
|-------------------7-5-7-------------9-9-|
|--10------------------------7-5-7--------|
|--------10-9-10--------------------------|
|-----------------------------------------|

 20
|---------------------------------------------|
|---------------------------------------------|
|--9--10--9-----------------------------------|
|------------10--------10-10-12-10-9--9-9-9-7-|
|---------------------------------------------|
|---------------------------------------------|

 21                                      22
|---------------------------------------|--------------------------------------|
|---------------------------------------|--------------------------------------|
|--7---------7h9p7----------------------|--------------------------------------|
|------------------(9/ 10)--------(10)\-|--7h 9----5h 7------------------------|
|---------------------------------------|------------------7---8---10---10-8-7-|
|---------------------------------------|--------------------------------------|

 23                              24
|-------------------------------|---------------------------------||
|-------------------------------|---------------------------------||
|-------------------------------|---------------------------------||
|----------------3------2-------|--7--------------7-7-7-7-5--5----||
|---------3-----------------3---|---------------------------------||
|--1----------------------------|---------------------------------||



================================================================================
Riff 6a: Guitar 1 (Play 4 times) [Time Signature = 8/4] [Tempo = 128 BPM]
================================================================================


||-----------------------------------------|
||-----------------------------------------|
||-----------------------------------------|
||--2--------2----2--2------5----5--4------|
||--2--------2----2--2---------------------|
||--0--------0----0--0---------------------|
                 ...

|---------------------------------------------|
|---------------------------------------------|
|--5--------5----5--5----7--7--4--4--5--5--0--|
|--5--------5----5--5-------------------------|
|--3--------3----3--3-------------------------|
|---------------------------------------------|
                ...

|-----------------------------------------|
|-----------------------------------------|
|-----------------------------------------|
|--2--------2----2--2------5----5--4------|
|--2--------2----2--2---------------------|
|--0--------0----0--0---------------------|
                ...

|---------------------------------------------| |
|---------------------------------------------| |
|---------------------------------------------|*|
|--5--------5----5--5----7--7--4--4--5--5--0--|*|
|--5--------5----5--5-------------------------| |
|--3--------3----3--3-------------------------| |
                ...



================================================================================
Riff 6b: Guitar 2 (Play 4 times)
================================================================================


||-----------------------------------------|
||-----------------------------------------|
||-----------------------------------------|
||--2--------2----2--2------5----5--4------|
||--2--------2----2--2---------------------|
||--0--------0----0--0---------------------|
                 ...

|---------------------------------------------|
|---------------------------------------------|
|--5--------5----5--5-------------------------|
|--5--------5----5--5-------------------------|
|--3--------3----3--3----5--5--2--2--3--3--2--|
|---------------------------------------------|
                ...

|-----------------------------------------|
|-----------------------------------------|
|-----------------------------------------|
|--2--------2----2--2---------------------|
|--2--------2----2--2------5----5--4------|
|--0--------0----0--0------3----3--2------|
                ...

|------------------------------------------| |
|------------------------------------------| |
|------------------------------------------|*|
|------------------------------------------|*|
|--5------------------5--5--2--2--3--3--2--| |
|--3------------------3--3--0--0--1--1--0--| |
                      ...................



================================================================================
Guitars 1 and 2 play riffs 4a and 4b respectively, 1 and 1/2 times
================================================================================


================================================================================
Riff 7a: Guitar 1 (Play 8 times) [Tempo = 60 BPM]
================================================================================



||---------------------|---------------------|----------------------|
||---------------------|---------------------|----------------------|
||---------------------|---------------------|----------------------|
||--2--------5----4----|--2--------5----4----|--5----------7----9---|
||---------------------|---------------------|----------------------|
||---------------------|---------------------|----------------------|


|----------------------| |
|----------------------| |
|----------------------|*|
|--7--------9----7-----|*|
|----------------------| |
|----------------------| |



After the first repeat, replace the first bar with the following:



|----------------------||
|----------------------||
|----------------------||
|--9----------5--4--5--||
|----------------------||
|----------------------||



After all repeats, end the song on the following:



|-------------------||
|-------------------||
|-------------------||
|--9~~--------------||
|-------------------||
|-------------------||



================================================================================
Riff 7b: Guitar 2 (Play 8 times)
================================================================================





||---------------------|---------------------|----------------------|
||---------------------|---------------------|----------------------|
||---------------------|---------------------|----------------------|
||--2--------5----4----|--2--------5----4----|--5----------7----9---|
||---------------------|---------------------|----------------------|
||---------------------|---------------------|----------------------|


|----------------------| |
|----------------------| |
|----------------------|*|
|--7--------5----4-----|*|
|----------------------| |
|----------------------| |



After the first repeat, replace the first bar with the following:



|----------------------||
|----------------------||
|----------------------||
|--2----------5--4--5--||
|----------------------||
|----------------------||



After all repeats, end the song on the following:



|-------------------||
|-------------------||
|-------------------||
|--2~~--------------||
|-------------------||
|-------------------||



================================================================================
Lead Riff 1: Guitar 3 with heavy distortion (Play once through)
================================================================================


[ Rest for 2 bars before playing ]


  1                           2                     3
||---------------------------|---------------------|-------------------|
||---------------------------|---------------------|-------------------|
||--0--2--4--5----4---2-2h 4-|--2--------0---------|-------------------|
||---------------------------|----------------4----|--2----------------|
||---------------------------|---------------------|-------------------|
||---------------------------|---------------------|-------------------|

 4                   5                           6
|-------------------|---------------------------|---------------------|
|-------------------|---------------------------|---------------------|
|-------------------|--0--2--4--5----4---2-2h 4-|--2--------4----2----|
|--(2)--------------|---------------------------|---------------------|
|-------------------|---------------------------|---------------------|
|-------------------|---------------------------|---------------------|

 7                                8
|--------------------------------|----------------------|
|--------------------------------|----------------------|
|--4p 2-4--2-4----4-5-4-0--2--4--|--5------5--4----2----|
|---------------2----------------|----------------------|
|--------------------------------|----------------------|
|--------------------------------|----------------------|

 9                              10
|------------------------------|------------------------|
|------------------------------|------------------------|
|----4-----4----4-5-4-0--2--4--|--5------5h 7-4----5----|
|--2---2-2----2----------------|------------------------|
|------------------------------|------------------------|
|------------------------------|------------------------|

 11                               12
|--------------------------------|----------------------|
|--------------------------------|----------------------|
|--4p 2-4----4----4-5-4-0--2--4--|--5------7--4----5----|
|----------2----2----------------|----------------------|
|--------------------------------|----------------------|
|--------------------------------|----------------------|

 13                            14
|-----------------------------|---------------------|
|-----------------------------|---------------------|
|----4----4--2-4-5-4-0--2--4--|--5--------4----5----|
|--2----2---------------------|---------------------|
|-----------------------------|---------------------|
|-----------------------------|---------------------|

 15                               16
|--------------------------------|---------------------|
|--------------------------------|---------------------|
|----4----4--2-4-5-4-2h 4--2--4--|--5--------4----5----|
|--2----2------------------------|---------------------|
|--------------------------------|---------------------|
|--------------------------------|---------------------|

 17                            18
|-----------------------------|----------------------|
|-----------------------------|----------------------|
|----4----4--2-4-5-4-0--2--4--|--5------7--4----5----|
|--2----2---------------------|----------------------|
|-----------------------------|----------------------|
|-----------------------------|----------------------|

 19                            20
|-----------------------------|----------------------|
|-----------------------------|----------------------|
|----4----4--2-4-5-4-0--2--4--|--5------7--4----5----|
|--2----2---------------------|----------------------|
|-----------------------------|----------------------|
|-----------------------------|----------------------|

 21                            22
|-----------------------------|----------------------|
|-----------------------------|----------------------|
|----4----4--2-4-5-4-0--2--4--|--5------7--4----5----|
|--2----2---------------------|----------------------|
|-----------------------------|----------------------|
|-----------------------------|----------------------|

 23                            24
|-----------------------------|----------------------|
|-----------------------------|----------------------|
|----4----4--2-4-5-4-0--2--4--|--5------7--4----5----|
|--2----2---------------------|----------------------|
|-----------------------------|----------------------|
|-----------------------------|----------------------|

 25                            26
|-----------------------------|----------------------|
|-----------------------------|----------------------|
|----4----4--2-4-5-4-0--2--4--|--5------7--4----5----|
|--2----2---------------------|----------------------|
|-----------------------------|----------------------|
|-----------------------------|----------------------|

 27                            28
|-----------------------------|----------------------|
|-----------------------------|----------------------|
|----4----4--2-4-5-4-0--2--4--|--5------7--4----5----|
|--2----2---------------------|----------------------|
|-----------------------------|----------------------|
|-----------------------------|----------------------|

 29                            30                     31
|-----------------------------|----------------------|-------------------||
|-----------------------------|----------------------|-------------------||
|----4----4--2-4-5-4-0--2--4--|--5------7--4----5----|--4~~--------------||
|--2----2---------------------|----------------------|-------------------||
|-----------------------------|----------------------|-------------------||
|-----------------------------|----------------------|-------------------||



================================================================================
End
================================================================================


Tab summary:        Riff 1a x 4 + Riff 1b x 1
                    Riff 1a + Riff 2 x 3
                    Riff 3a x 1 + Riff 3b x 6
                    Riff 4a + Riff 4b x 2
                    Riff 5a x 2 + Riff 5b x 10 + Riff 5c x 1
                    Riff 6a + Riff 6b x 4
                    Riff 4a + Riff 4b x 1 & 1/2
                    Riff 7a + Riff 7b + Lead Riff 1 x 1

                    END


-----------------------
Corrections (11/12/06):
-----------------------

* Corrected Riff 1b


-----------------------
Corrections (21/11/06):
-----------------------

* Corrected Riff 3b


-----------------------
Corrections (01/11/06):
-----------------------

* Corrected Riffs 4a & 4b
* Corrected Riffs 7a & 7b
* Corrected Lead Riff 1
* Minor adjustments to layout


-----------------------
Corrections (29/10/05):
-----------------------

* Minor adjustments to layout
* Fixed rests


-----------------------
Corrections (06/10/05):
-----------------------

* Corrected palm mute in bar 1 of riff 6b

  Visit MetalTabs.com for more metal tablature

bottom separator

Contact Us | Privacy Policy | Disclaimer | Legal Notice
Copyright © 2001-2014 MetalTabs.com. All Rights Reserved.