top separator

Home

Forum

FAQ

Contact Us

Link to Us

MetalTabs.com logo

Bands

0-9

A

B

C

D

E

F

G

H

I

J

K

L

M

N

O

P

Q

R

S

T

U

V

W

X

Y

Z

Iron Maiden - "Where Eagles Dare" Bass Tab

Plain Text Version
More Iron Maiden Tabs

Hits: 2003
Updated: 2005-05-07 09:50:02

By:


#----------------------------------PLEASE NOTE---------------------------------#
#This file is the author's own work and represents their interpretation of the #
#song. You may only use this file for private study, scholarship, or research. #
#Unless specified otherwise, this is NOT an official tab from the band members.#
#------------------------------------------------------------------------------#

  Visit MetalTabs.com for more metal tablature
  
Band:  IRON MAIDEN
Album: PIECE OF MIND
Song:  Where Eagles Dare

Copyright (c)  EMI Records Ltd 1983
Version 1.0  24/04/05

Transcribed By: Evil Barba
Email:          Judasbear@hotmail.com

.  - stronger            /  - slide up to
\  - slide down to       ~  - vibrato
h  - hammer on           b  - Bend
p  - pull off            Suffixes for bend
t  - tap                 f  - full bend    h - half bend
ph - pinched harmonic    q  - quarter bend t - tap bend
*  - see comment         ^  - Hold bend    r release bend
x  - Stuccatto           ~  - vibrato bend
,  - slight palm mute    () - ghost note, sustained note
"  - tremolo note        <> - Trill

Tuning E A D G

                                                     4X
|----|-------------------------------------------------|-----------------------
|----|.-----------------------------------------------.|.----------------------
|--7\|.------7---7-------5---5-------3-3-3-3-3-3-3-2--.|.2--2-2-2-2-2--2-2-2-2-
|----|-0-0-0-------0-0-0-------0-0-0-----------------3-|-----------------------

                                                                1X
 ----------------------------------------------------------------|
 ---------------------------------------------------------------.|
 -3--3-3-3-3-3--3-3-3-3-2--2-2-2-2-2--2-2-2-2-3--3--3--5--5-5--.|
 ----------------------------------------------------------------|

Verse
|-------------------------------------------------|
|.------------------------------------------------|
|.------7---7-------5---5-------3-3-3-3-3-3-3-2---|
|-0-0-0-------0-0-0-------0-0-0-----------------3-|

                                           2X
|-------------------------------------------|
|------------------------------------------.|
|---------------------------------3--2-----.|
|0-0-0-0-0-0-2--3--3--0-0-0-0-0-0-------3---|

Chorus
|----------------------------------------------------------------------------|
|.---------------------------------------2-----------------------------------|
|.3--3-3-3-3-3--3-3-3-3-3--3-3-3-3-3--5-----5--5-5-5-5-5--5-5-5-5-5--5-5-5-5-|
|----------------------------------------------------------------------------|

|-----------------------------------------------------------------------------|
|-------------------------------------------------2---------------------------|
|-2--3--5--3--3-3-3-3-3--3-3-3-3-3--3-3-3-3-3--5-----5--5-5-5-5-5--5-5-5-5-2--|
|-----------------------------------------------------------------------------|

                               1X
|-------------------------------|
|------------------------------.|
|-2-2-2-2--2-2-2-2-3-----5-----.|
|-------------------------------|

                                                  2X
|--------------------------------------------------|
|.------------------------------------------------.|
|.------7---7-------5---5-------3-3-3-3-3-3-3-2---.|
|-0-0-0-------0-0-0-------0-0-0-----------------3--|

Verse
|-------------------------------------------------|
|.------------------------------------------------|
|.------7---7-------5---5-------3-3-3-3-3-3-3-2---|
|-0-0-0-------0-0-0-------0-0-0-----------------3-|

                                           2X
|-------------------------------------------|
|------------------------------------------.|
|---------------------------------3--2-----.|
|0-0-0-0-0-0-2--3--3--0-0-0-0-0-0-------3---|

Chorus
|----------------------------------------------------------------------------|
|.---------------------------------------2-----------------------------------|
|.3--3-3-3-3-3--3-3-3-3-3--3-3-3-3-3--5-----5--5-5-5-5-5--5-5-5-5-5--5-5-5-5-|
|----------------------------------------------------------------------------|

|-----------------------------------------------------------------------------|
|-------------------------------------------------2---------------------------|
|-2--3--5--3--3-3-3-3-3--3-3-3-3-3--3-3-3-3-3--5-----5--5-5-5-5-5--5-5-5-5-2--|
|-----------------------------------------------------------------------------|

                               1X
|-------------------------------|
|------------------------------.|
|-2-2-2-2--2-2-2-2-3-----5-----.|
|-------------------------------|

|------------------------------------------|------------------------------
|.-----------------------------------------|------------------------------
|.7-7-7-7\-------------7-7-7-7-5-5-5-5-5-5-|-7-7-7-7\-------------7-7-7-7-
|-----------0-0-0-0-0----------------------|-----------0-0-0-0-0----------

 -------------|-------------------------------------------|-----------
 -------------|-------------------------------------------|-----------
 -5-5-5-7-7-7-|-5-5-5-5\--------------5-5-5-5-------5-5-5-|-7-7-7-7\--
 -------------|------------0-0-0-0-0----------7-7-7-------|-----------

                                4X
 --------------------------------|
 -------------------------------.|
 ------------7-7-7-7-5-5-5-5-5-5.|
 -0-0-0-0-0----------------------|

Guitar Solo
|---------------------------------------|
|---------------------------------------|
|---------------------------------------|
|-0--0-0-0-0-0--0-0-0-0-0--0-0-0-0-0--0-|

|---------------------------------------|
|---------------------------------------|
|---------------------------------------|
|-3--3-3-3-3-3--3-3-3-3-3--3-3-3-3-3--3-|

|---------------------------------------|
|---------------------------------------|
|---------------------------------------|
|-0--0-0-0-0-0--0-0-0-0-0--0-0-0-0-0--0-|

|----------------------------------------|
|----------------------------------------|
|--------------------------.--.--.--.--.-|
|-3--3-3-3-3-3--3-3-3-3-3--3--3--3--3-3-|

|---------------------------------------|
|.--------------------------------------|
|.--------------------------------------|
|-0--0-0-0-0-0--0-0-0-0-0--0-0-0-0-0--0-|

                                        4X
|----------------------------------------|
|---------------------------------------.|
|---------------------------------------.|
|-3--3-3-3-3-3--3-3-3-3-3--3-3-3-3-3--3--|

|------------9-9-9-9-9-9-9-9-9-9-9-9-9-9-9-9-9-9-|
|----------9-------------------------------------|
|----7-7-7---------------------------------------|
|-0----------------------------------------------|

|-----------------11h12-12-12-12-12-12-12-12-12-12-12-12-12-12-12-12-12-|
|-----10-12-10-12-------------------------------------------------------|
|-10--------------------------------------------------------------------|
|-----------------------------------------------------------------------|

|------------9-9-9-9-9-9-9-9-9-9-9-9-9-9-9-9-9-9-|
|----------9-------------------------------------|
|----7-7-7---------------------------------------|
|-0----------------------------------------------|

|-----------------11h12-12-12-12-12-14-14-14-14-14-14-14-14-14-14\---|
|-----10-12-10-12----------------------------------------------------|
|-10-----------------------------------------------------------------|
|--------------------------------------------------------------------|

                                             4X
|-----------------------------------------------|
|.-----5----------5----------5-----7-----5-----.|
|.7--7---7-7-7--7---7-7-7--7---7-7---7-7-------.|
|-----------------------------------------------|
                                                      2X
|------------------------------------------------------|
|.--------------------------------------------11------.|
|.9--9-12-9-9-9--9-12-9-9-9--9-12-9-9-12-9-11----11-9-.|
|------------------------------------------------------|

                                               2X
|-----------------------------------------------|
|.-----5----------5----------5-----7-----5-----.|
|.7--7---7-7-7--7---7-7-7--7---7-7---7-7-------.|
|-----------------------------------------------|

|------------------------------------------|------------------------------
|.-----------------------------------------|------------------------------
|.7-7-7-7\-------------7-7-7-7-5-5-5-5-5-5-|-7-7-7-7\-------------7-7-7-7-
|-----------0-0-0-0-0----------------------|-----------0-0-0-0-0----------

 -------------|-------------------------------------------|-----------
 -------------|-------------------------------------------|-----------
 -5-5-5-7-7-7-|-5-5-5-5\--------------5-5-5-5-------5-5-5-|-7-7-7-7\--
 -------------|------------0-0-0-0-0----------7-7-7-------|-----------

                                4X
 --------------------------------|
 -------------------------------.|
 ------------7-7-7-7-5-5-5-5-5-5.|
 -0-0-0-0-0----------------------|

                                                  2X
|--------------------------------------------------|
|.------------------------------------------------.|
|.------7---7-------5---5-------3-3-3-3-3-3-3-2---.|
|-0-0-0-------0-0-0-------0-0-0-----------------3--|


Verse
|-------------------------------------------------|
|.------------------------------------------------|
|.------7---7-------5---5-------3-3-3-3-3-3-3-2---|
|-0-0-0-------0-0-0-------0-0-0-----------------3-|

                                           2X
|-------------------------------------------|
|------------------------------------------.|
|---------------------------------3--2-----.|
|0-0-0-0-0-0-2--3--3--0-0-0-0-0-0-------3---|


Chorus
|----------------------------------------------------------------------------|
|.---------------------------------------2-----------------------------------|
|.3--3-3-3-3-3--3-3-3-3-3--3-3-3-3-3--5-----5--5-5-5-5-5--5-5-5-5-5--5-5-5-5-|
|----------------------------------------------------------------------------|

|-----------------------------------------------------------------------------|
|-------------------------------------------------2---------------------------|
|-2--3--5--3--3-3-3-3-3--3-3-3-3-3--3-3-3-3-3--5-----5--5-5-5-5-5--5-5-5-5-2--|
|-----------------------------------------------------------------------------|

                               1X
|-------------------------------|
|------------------------------.|
|-2-2-2-2--2-2-2-2-3-----5-----.|
|-------------------------------|

                                                  4X
|--------------------------------------------------|
|.------------------------------------------------.|
|.------7---7-------5---5-------3-3-3-3-3-3-3-2---.|
|-0-0-0-------0-0-0-------0-0-0-----------------3--|


|----------------------------------------------|
|.---------------------------------------------|
|.2--2-2-2-2-2--2-2-2-2--3--3-3-3-3-3--3-3-3-3-|
|----------------------------------------------|

                                          1X
|------------------------------------------|
|-----------------------------------------.|
|-2--2-2-2-2-2--2-2-2-2-3--3--3--5--5-5--.|
|------------------------------------------|


|-----------------------------------7-7-999----------------------------------|
|-------------------------99997-7-7---------7-5---7-5---7-5------------------|
|-7------7-7-7-7-777-7777-----------------------7-----7-----7-------7-7-7-7\-|
|-0--------------------------------------------------------------------------|

  Visit MetalTabs.com for more metal tablature

bottom separator

Contact Us | Privacy Policy | Disclaimer
Copyright © 2001-2014 MetalTabs.com. All Rights Reserved.