#----------------------------------PLEASE NOTE---------------------------------#
#This file is the author's own work and represents their interpretation of the #
#song. You may only use this file for private study, scholarship, or research. #
#Unless specified otherwise, this is NOT an official tab from the band members.#
#------------------------------------------------------------------------------#

  Visit MetalTabs.com for more metal tablature
  
Band: Beef Conspiracy
Album: Hung Drawn and Quarter Poundered
Song: Rover Does the Splits
Tuning: C G C F A D
Record Label: Grindethic


-----------------------
-----------------------
-----------------------
------------------76---
-0--0-5-6-7-6-5-8------
-0--0-5-6-7-6-5--------X4

-------------------------
-------------------------
-------------------------
-------------------------
----------------------'4-
-544644544644544644-54---X2

' = harmonic

--------------------------
--------------------------
--------------------------
---------------------76---
-5/1-0--0-5-6-7-6-5-8-----
-5/1-0--0-5-6-7-6-5-------X1

this tab is 100% correct
and all the credit goes to fellow meat eater jamboree!

  Visit MetalTabs.com for more metal tablature