top separator

Home

Forum

FAQ

Contact Us

Link to Us

MetalTabs.com logo

Bands

0-9

A

B

C

D

E

F

G

H

I

J

K

L

M

N

O

P

Q

R

S

T

U

V

W

X

Y

Z

Dream Theater - "The Dance of Eternity" Drum Tab

Plain Text Version
More Dream Theater Tabs

Hits: 7266
Rated: 4.56 out of 5 (16 votes)
Updated: 2005-05-07 09:40:29

By:


#----------------------------------PLEASE NOTE---------------------------------#
#This file is the author's own work and represents their interpretation of the #
#song. You may only use this file for private study, scholarship, or research. #
#Unless specified otherwise, this is NOT an official tab from the band members.#
#------------------------------------------------------------------------------#

  Visit MetalTabs.com for more metal tablature
  
Band:  Dream Theater
Album: Metropolis Pt. 2: Scenes from a Memory
Song:  The Dance of Eternity

Version 1.0  23/04/05

Transcribed By: Wolf Lubin
Email:          crazybatteurlubinus@wanadoo.fr
Key :
P   |t = Percussion - tamborine
H   |x = closed hi-hat
H   |s = partially open hi-hat
H   |X = open hi-hat
H   |d = double bounce
R   |x = ride
R   |d = two consecutive notes
R   |b = bell of ride
C   |x = crash strike
C   |c = china cymbal
C   |1 = Max stax Number 1
C   |2 = Max stax Number 2
T   |o = Tom 1
T   |F = flam on tom 1
T2  |o = Tom 2
T2  |d = double bounce
T2  |x = Play on rim of tom 2
T2  |F = flam on tom 2
T3  |o = Tom 3
T3  |F = flam on tom 3
T4  |o = Tom 4
T4  |f = Play flam on rim of tom 4
T4  |F = flam on tom 4
S   |o = snare drum
S   |d = double bounce
S   |g = ghost note
S   |F = flam on snare drum
Gb  |o = gong bass
B   |o = Bass drum 1
B   |d = two consecutive notes
B2  |o = Bass drum 2
Hf  |x = hi-hat w/ foot

THE TAB
Intro at 0:13
    |---------Play 7x--------|
    |<<<--------------<<<crescendo<<<--------------<<<|
S   |oooo-----o-----o--oooo--|oooo-----ooooooo--oooo--|
B   |o-----o-----o-----o-----|------------------------|
    (1  +  2  +  3  +  4  +  |1  +  2  +  3  +  4  +  )

at 0:31
C   |x----x--|x----x-x|-----x--|x---|
B   |o----o--|o----o-o|-----o--|o--o|
    (1+2+3+4+|1+2+3+4+|1+2+3+4+|1+2+)

C   |---------------x--------|x--------------x-----x--|
T2  |F-o---------------------|------o-----------------|
T3  |----o--o----------------|--------o---------------|
T4  |----------o-------------|----------o-------------|
S   |------------o-----------|--o-o-------o-----------|
B   |---------------o--------|o--------------o-----o--|
    (1  +  2  +  3  +  4  +  |1  +  2  +  3  +  4  +  )

C   |------------x---|--x-----|
T2  |----------oo----|--------|
S   |----ddddoo----oo|oo--oooo|
B   |------------o---|--o-----|
    (1 + 2 + 3 + 4 + |1 + 2 + )

at 0:44
    |---------------------------Play 2x-----------------------|
C   |x---------------2-----------x-|x-----------------------x-|
H   |--x---ddx---x---------s---s---|--x---ddx-----x---s---s---|
S   |----o---------o-----o---o-----|----o-----------o---o-----|
B   |o---------o-------o---------o-|o---------o-o-----------o-|
    (1 + 2 + 3 + 4 + 5 + 6 + 7 + 8 |1 + 2 + 3 + 4 + 5 + 6 + 7 )

at 0:57
C   |x--x---|------x|--x--x-|-------|
T2  |-------|-oo----|-------|--oo---|
T3  |-------|---oo--|-------|----oo-|
T4  |-------|-----o-|-------|------o|
S   |--o--oo|o------|-o--o--|oo-----|
B   |o--o---|------o|--o--o-|-------|
    (1+2+3+4|1+2+3+4|1+2+3+4|1+2+3+4)

C   |x--x--x-|x-------|-x--x--x|--------|
T2  |--------|----oo--|--------|---oo---|
T3  |--------|------oo|--------|-----oo-|
T4  |--------|--------|o-------|-------o|
S   |--o--o--|--oo----|---o--o-|-oo-----|
B   |o--o--o-|o-------|-o--o--o|--------|
    (1+2+3+4+|1+2+3+4+|1+2+3+4+|1+2+3+4+)

at 1:04
C   |x---------x-----|x---------x---x-|----------x-----|
T2  |----Fo----------|----Fo----------|--Fo------------|
T3  |------oo--------|------oo--------|----oo----------|
S   |--------o-------|--------o-------|------o-------F-|
B   |o-o-o-o-o-o-o-o-|o-o-o-o-o-o-o-o-|o-o-o-o-o-o-o-o-|
B2  |-o-o-o-o-o-o-o-o|-o-o-o-o-o-o-o-o|-o-o-o-o-o-o-o-o|
    (1 + 2 + 3 + 4 + |1 + 2 + 3 + 4 + |1 + 2 + 3 + 4 + )

C   |x-----x---------|------x-------------|
T   |--------oo------|--------oo----------|
T2  |----------oo----|----------oo--------|
T3  |----------------|--oo------------oo--|
T4  |------------oo--|------------oo----oo|
S   |--------------o-|--------------o-----|
B   |o-o-o-o-o-o-o-o-|o-o-o-o-o-o-o-o-o-o-|
B2  |-o-o-o-o-o-o-o-o|-o-o-o-o-o-o-o-o-o-o|
    (1 + 2 + 3 + 4 + |1 + 2 + 3 + 4 + 5 + |

at 0:15
T2  |------------oooo--------|----------|
T3  |oooo--------------------|----------|
T4  |------------------oooo--|----------|
S   |------------------------|F---------|
Gb  |------oooo--------------|----------|
B   |----o-----o-----o-----o-|----------|
B2  |-----o-----o-----o-----o|----------|
    (1  +  2  +  3  +  4  +  |1+2+3+4+5+)

at 1:19
C   |x--x--x-|x-------|-x--x--x|--------|
T2  |--------|----oo--|--------|---oo---|
T3  |--------|------oo|--------|-----oo-|
T4  |--------|--------|o-------|-------o|
S   |--o--o--|--oo----|---o--o-|-oo-----|
B   |o--o--o-|o-------|-o--o--o|--------|
    (1+2+3+4+|1+2+3+4+|1+2+3+4+|1+2+3+4+)

C   |x--x---|------x|--x--x-|------------|
T2  |-------|-oo----|-------|------------|
T3  |-------|---oo--|-------|------------|
T4  |-------|-----o-|-------|o-----o-----|
S   |--o--oo|o------|-------|o-----o-----|
B   |o--o---|------o|--o--od|------o-----|
    (1+2+3+4|1+2+3+4|1+2+3+4|1+2+3+4+5+6+)

at 1:29
C   |x---------------------------|x---------------------------|
H   |----s---s---s---s-----------|----s---s---s---s-----------|
T2  |----------------------oo----|---------------------oo-----|
T3  |------------------------oo--|------------------------oo--|
T4  |--------------------------oo|----------------------------|
S   |----o---o---o---o---oo------|----o---o---o---o---o--o--oo|
B   |o-o-o-o-o-o-o-o-o-o-o-o-o-o-|o-o-o-o-o-o-o-o-o-o-o-o-o-o-|
B2  |-o-o-o-o-o-o-o-o-o-o-o-o-o-o|-o-o-o-o-o-o-o-o-o-o-o-o-o-o|
    (1 + 2 + 3 + 4 + 5 + 6 + 7 + |1 + 2 + 3 + 4 + 5 + 6 + 7 + )
                           ________ _______________
                          |1.      |2.             |
C   |x-----------|--------|--------|---------------|
H   |---s--s--s--|s-s-s---|--------|---------------|
T2  |------------|--------|--oo----|---------------|
T3  |------------|--------|----oo--|---o-----------|
T4  |------------|--------|------oo|------------o--|
S   |---o-----o--|--o-o---|oo------|o-----F--o-----|
B   |o-o-o-o-o-o-|o-o-o-o-|--------|-o--o-----o--o-|
B2  |-o-o-o-o-o-o|-o-o-o-o|--------|--o--o-----o--o|
    (1tl2tl3tl4tl|1 + 2 + |1 + 2 + |1tl2tl3tl4tl5tl)

at 1:44
C   |c-------------------|------------------------|
T4  |oooo-oooo-oooo-oooo-|oooo-oooo-oooo-oooo-ooo-|
B   |o----o----o----o----|o----o----o----o----o---|
    (1 + 2 + 3 + 4 + 5 + |1 + 2 + 3 + 4 + 5 + 6 + )

at 1:49
C   |c---------------|----------------------------|
T4  |-ooo-ooofooo-ooo|fooo-ooofooo-ooofooo-ooo-ooo|
S   |----o-------o---|----o-------o-------o---o---|
B   |o-o-o-o-o-o-o-o-|o-o-o-o-o-o-o-o-o-o-o-o-o-o-|
B2  |-o-o-o-o-o-o-o-o|-o-o-o-o-o-o-o-o-o-o-o-o-o-o|
    (1 + 2 + 3 + 4 + |1 + 2 + 3 + 4 + 5 + 6 + 7 + )

at 1:55
    |-----Play 2x----|
C   |x---x---x---x---|x---x---x---|
S   |----o-------o---|----o---o---|
B   |o-o-o-o-o-o-o-o-|o-o-o-o-o-o-|
B2  |-o-o-o-o-o-o-o-o|-o-o-o-o-o-o|
    (1 + 2 + 3 + 4 + |1 + 2 + 3 + )

at 2:00       ________ _________________
             |1.      |2.               |
C   |x----x--|--x----x|-----------------|
S   |-----o--|-------o|--oooo-oooooooooo|
B   |o-------|--o-----|-----------------|
    (1 + 2 + |1 + 2 + |1 + 2 + 3 +tl4tl+)
                          ________________________
at 2:05                  |1.                      |
C   |x-------------------|------------------------|
R   |-bbb-bbbb-bb-b-bbbb-|bbbb-bbbb-bb-b-bbbb-bbb-|
S   |----o-------o-------|----o-------o-----------|
B   |o-o-o-o-o-o-o-o-o-o-|o-o-o-o-o-o-o-o-o-o-o-o-|
B2  |-o-o-o-o-o-o-o-o-o-o|-o-o-o-o-o-o-o-o-o-o-o-o|
    (1 + 2 + 3 + 4 + 5 + |1 + 2 + 3 + 4 + 5 + 6 + )
     ________________________
    |2.                      |
R   |bbbb--------------------|
S   |-----oooo-oooo-oooo-ooo-|
B   |o-o-o-o-o-o-o-o-o-o-o-o-|
B2  |-o-o-o-o-o-o-o-o-o-o-o-o|
    (1 + 2 + 3 + 4 + 5 + 6 + )
                      ________________ ________________
at 2:16              |1.              |2.              |
C   |x---------------|x---x---x---x---|x---------------|
R   |----------------|--x---x---x---x-|----------------|
H   |---s-s-s--s-s---|----------------|----------------|
T2  |----------------|----------------|-------Foo------|
T3  |----------------|----------------|----------Foo---|
T4  |----------------|----------------|-------------Foo|
S   |----o-------o-oo|----o-------o-oo|-oooFoo---------|
B   |o--o-o-o--oo----|o-o-o-o-o-o-o-o-|o---------------|
B2  |----------------|-o-o-o-o-o-o-o-o|----------------|
    (1 + 2 + 3 + 4 + |1 + 2 + 3 + 4 + |1 + 2 + 3 + 4 + )
                      ________________ ________________
                     |1.              |2.              |
P   |----------------|----------------|----------t-t-t-|
C   |x--1-1-1--1-1---|c---c---c---c---|----------------|
R   |----------------|--x---x---x-----|----------------|
S   |----o-------o-oo|----o--o----o-oo|o-o-oo-o--------|
B   |o--o-o-o--oo----|o-o-o-o-o-o-o-o-|----------------|
B2  |----------------|-o-o-o-o-o-o-o-o|----------------|
    (1 + 2 + 3 + 4 + |1 + 2 + 3 + 4 + |1 + 2 + 3 + 4 + )

at 2:32
    |-----Play 4x----|-----Play 3x----|
C   |----------------|----------------|-x--x--x--x--x--|x-------|
R   |----------------|x-x-d-x-x-x-d-x-|----------------|--------|
S   |--o---o---o--oo-|--o---o---o---o-|-o--o--o--o--o--|o-------|
B   |o---------------|o---------------|o---------------|--------|
    (1 + 2 + 3 + 4 + |1 + 2 + 3 + 4 + |1 + 2 + 3 + 4 + |1+2+3+4+)

at 2:48
    |-----Play 7x----|                |-----Play 2x----|
C   |x---------------|x---------------|x---x---x---x---|
H   |--s---s---s---s-|--s---s---s-----|----------------|
T2  |----------------|--------------do|----------------|
S   |--o---o---o---o-|--o---o---o-----|o---o---o---o---|
B   |o-o-o-o-o-o-o-o-|o-o-o-o-o-o-o-o-|o-o-o-o-o-o-o-o-|
B2  |-o-o-o-o-o-o-o-o|-o-o-o-o-o-o-o-o|-o-o-o-o-o-o-o-o|
    (1 + 2 + 3 + 4 + |1 + 2 + 3 + 4 + |1 + 2 + 3 + 4 + )

at 3:07
C   |----------------|--------------x-|
S   |F-------------oo|-oo-----------o-|
B   |o---o---o---o---|o---o---o---o---|
    (1 + 2 + 3 + 4 + |1 + 2 + 3 + 4 + )

    |-------------Play 2x-------------|
C   |----------------|--------------x-|
S   |--------------oo|-oo-----------o-|
B   |o---o---o---o---|o---o---o---o---|
    (1 + 2 + 3 + 4 + |1 + 2 + 3 + 4 + )

T3  |----------------|------------F---|
T4  |----------------|--------------oo|
S   |--------------oo|-oo-------------|
B   |o---o---o---o---|o---o---o---o---|
    (1 + 2 + 3 + 4 + |1 + 2 + 3 + 4 + )

at 3:21
C   |x---------------|----------------|
S   |--oo-oo-ooooo-oo|o-oo-oo-ooooo-oo|
B   |o---o---o---o---|o---o---o---o---|
    (1 + 2 + 3 + 4 + |1 + 2 + 3 + 4 + )

                                      |-----Play 2x----|
S   |o-oo-oo-oooo-oo-|oo-oo-oo--ooo-oo|o-oo-oo-ooooo-oo|
B   |o---o---o---o---|o---o---o---o---|o---o---o---o---|
    (1 + 2 + 3 + 4 + |1 + 2 + 3 + 4 + |1 + 2 + 3 + 4 + )

S   |o-oo-oo-oooo-oo-|oo-oo-oo--oo|
B   |o---o---o---o---|o---o---o---|
    (1 + 2 + 3 + 4 + |1 + 2 + 3 + )

at 3:35
    |-----Play 8x----|
C   |x---x---x---x---|
S   |o---o---o---o---|
B   |o-o-o-o-o-o-o-o-|
B2  |-o-o-o-o-o-o-o-o|
    (1 + 2 + 3 + 4 + )

at 3:50
    |----------------------Play 2x---------------------|
H   |x--xx--x-x--x--x|x--xx--x--x--x--|x--xx--x-x-x-x-x|
S   |-gg--gg-g-gg-gg-|-gg--gg-gg-gg-gg|-gg--gg-g-g-g-g-|
B   |o---o--o-o--o---|o---o--o--o--o--|o---o--o-o-o-o--|
    (1 + 2 + 3 + 4 + |1 + 2 + 3 + 4 + |1 + 2 + 3 + 4 + )

    |-----Play 4x----|
C   |2------1-1------|1-11--11-11--11-|11--11-11--11-11|
H   |----X-------X---|----------------|----------------|
S   |-ggg-gg-g-gg-ggg|-g--gg--g--gg--g|--gg--g--gg--g--|
B   |o---o--o-o--o---|o--o---o--o---o-|-o---o---o--o--o|
Hf  |-----x-------x--|----------------|----------------|
    (1 + 2 + 3 + 4 + |1 + 2 + 3 + 4 + |1 + 2 + 3 + 4 + )

C   |-11-11-11-11-11-|11-11-11--------|----------------|-
H   |----------------|----------X---X-|-X---X--X---X--X|- very
S   |g--g--g--g--g--g|--g--g--gg-ggg-g|g-ggg-gg-ggg-gg-|- short
B   |--o--o--o--o--o-|-o--o--o--o---o-|-o---o--o---o--o|- break
HF  |----------------|-----------x---x|--x---x--x---x--|x
    (1 + 2 + 3 + 4 + |1 + 2 + 3 + 4 + |1 + 2 + 3 + 4 + )

Very short break

at 4:23
C   |c-c--c-c--c-c-c-|-c-c--c-c-c--c-c|--c-c--c-c-c--|
B   |o-o--o-o--o-o-o-|-o-o--o-o-o--o-o|--o-o--o-o-o--|
    (1 + 2 + 3 + 4 + |1 + 2 + 3 + 4 + |1 + 2 + 3 + 4 )

at 4:29
H   |X---X--X--X---X--X--|
S   |-ggg-gg-gg-ggg-gg-gg|
B   |o---o--o--o---o--o--|
Hf  |-x---x--x--x---x--x-|
    (1 + 2 + 3 + 4 + 5 + )

at 4:32
C   |x---------x-----|x--------------x-----x--|
T   |-F-ooo-oo-------|------------------------|
T2  |------------oo--|----o-o-----------------|
T3  |--------------oo|--o-----o-o-------------|
T4  |----------------|------------o-----------|
S   |----------------|--o---------o-----------|
B   |o---------o-----|o--------------o-----o--|
    (1 + 2 + 3 + 4 + |1  +  2  +  3  +  4  +  |

C   |----------x-----|x-----x-----cc--|
T2  |--ddddoo--------|----------------|
T3  |--------oo------|----------------|
T4  |------------oooo|----------------|
S   |----------------|-------goooo--oo|
Gb  |----------------|--oooo----------|
B   |----------o-----|o-----o-----o---|
B2  |----------------|-------------o--|
    (1 + 2 + 3 + 4 + |1 + 2 + 3 + 4 + |

C   |cccc--cc--cccc--cc--|
S   |----oo--oo----oo--oo|
B   |o-o---o---o-o---o---|
B2  |-o-o---o---o-o---o--|
    (1 + 2 + 3 + 4 + 5 + )

at 4:43
C   |x--------|x--------|x--x--|x--------|
H   |--sS-sS--|--sS-sS--|------|--sS-sS--|
S   |---o---oo|---o---oo|-oo-oo|---o---oo|
B   |o-o---o--|o-o---o--|o--o--|o-o---o--|
    (1tl2tl3tl|1tl2tl3tl|1tl2tl|1tl2tl3tl|
     _____________________ _____________________
    |1.                   |2.                   |
C   |x-----------------x-x|x--------------------|
H   |--sS-------s---------|--sS--s-s--s--s-s-s--|
T2  |------x-x-----x-x----|---------------------|
S   |---o---g-gg-gg-g-g-g-|---o--o-o--o--o-o-o--|
B   |o-o---o-o--o--o-o-o-o|o-o----o-oo-oo-ooo-oo|
    (1tl2tl3tl4tl5tl6tl7tl|1tl2tl3tl4tl5tl6tl7tl)

at 5:01
C   |x-----------------|-----------------|
H   |---s-----s--s--s-s|-s-s-s-s-s-s-s-s-|
S   |---o----o---o-----|o-----o---o---o--|
B   |o-----o--o-o---o-o|-o-o-o-o-o-o-o-o-|
    (1tl2tl3tl4tl5tl6tl|1tl2tl3tl4tl5tl6t)

C   |x-----------------|-----------------|
H   |--s-s-s-s-s-s-ss-s|-s-s-ss-ss-s-s-s-|
S   |---o-----o---d----|o---d--d--d-d-d-d|
B   |o-o-o-o-o-o-o-oo-o|-o-o-oo-oo-o-o-o-|
    (1tl2tl3tl4tl5tl6tl|1tl2tl3tl4tl5tl6t)

at 5:13
    |-----------Play 2x-----------|----------Play 2x---------|
C   |--------1---|--------1---1---|------1-----------1---1---|
R   |x-----------|x---------------|x-----------x-------------|
S   |---o-o----o-|---o-o----o---o-|---o-----o-----o----o---o-|
B   |o-------o---|o-------o---o---|o-----o-----o-----o-------|
    (1 + 2 + 3 + |1 + 2 + 3 + 4 + |1 + 2 + 3 + 4 + 5 + 6 + 7 )

at 5:27
R   |x-x--x-x--x-x--x--x--|
B   |o-o--o-o--o-o--o--o--|
(1       +  2  +  3  +  4  )

at 5:30
    |-----------Play 2x----------|--------Play 2x-------|----|
C   |x---------------------------|x---------------------|----|
R   |--b-x-b-x-b-x-b-x-b-x-b-x-b-|---b--b--b--b--b--b---|b---|
S   |---o-o----o----o-o----o---o-|---o-----o-----o----F-|--F-|
B   |o-o---o-o---o-----o-o---o---|o-o-o-o-o-o-o-o-o-o-o-|o-o-|
B2  |----------------------------|-o-o-o-o-o-o-o-o-o-o-o|-o-o|
    (1 + 2 + 3 + 4 + 5 + 6 + 7 + |1  2  3  4  5  6  7 + |1 + )

at 5:44
C   |---------------------|2-2--2-2--2-2--2-2|
R   |b-b--b-b--b-b--b--b--|------------------|
S   |-g-gg-g-gg-g-gg-gg-gg|-g-gg-g-gg-g-gg-g-|
B   |o-o--o-o--o-o--o--o--|o-o--o-o--o-o--o-o|
    (1  +  2  +  3  +  4  |1  +  2  +  3  +  )

at 5:49
C   |--1-1--1-1-1--1-1--1--1-|-2-2--2-2--2-2--|-------|
T2  |------------------------|----------------|-oo----|
T3  |------------------------|----------------|---oo--|
T4  |------------------------|----------------|-----oo|
S   |gg-g-gg-g-g-gg-g-gg-gg-g|g-g-gg-g-gg-g-gg|F------|
B   |--o-o--o-o-o--o-o--g--g-|-g-g--g-g--g-g--|-------|
    (1  +  2  +  3  +  4  +  |1 + 2 + 3 + 4 + |1234567)
                  ____________ ______________ ____________
at 5:26          |1.          |2.            |3.          |
C   |x-----x-----|x-----------|x-------------|x-----x-----|
R   |--x-x---x-x-|--x-x-x-x-x-|--x-x---------|--x-x---x-x-|
T   |------------|------------|-------oo-----|------------|
T2  |--------o---|------------|---------oo---|------------|
T3  |----------o-|------------|-----------o--|------------|
S   |---o--o-----|---o--oo--oo|---o--F-----oo|---o--o---oo|
B   |o----o------|o----o--oo--|o----o--------|o----o--oo--|
    (1  +  2  +  |1  +  2  +  |1  +  2  +  3 |1  +  2  +  )
     ____________
    |4.          |
C   |x-----------|x----------|
R   |--x-x-------|-----------|
T3  |-------oo---|-----------|
T4  |---------oo-|-----------|
S   |---o--o-----|O-FFFF-F-F-|
Gb  |-----------o|-----------|
B   |o----o------|-----------|
    (1  +  2  +  |1+2+3+4+5+6)


END
Please e-mail comments to crazybatteurlubinus@wanadoo.fr
Thanks very much and enjoy the tab
Lubin Wolf
crazybatteurlubinus@wanadoo.fr

  Visit MetalTabs.com for more metal tablature

bottom separator

Contact Us | Privacy Policy | Disclaimer
Copyright © 2001-2014 MetalTabs.com. All Rights Reserved.