top separator

Home

Forum

What's New

Submit a Tab

FAQ

Links

Contact Us

Link to Us

MetalTabs.com logo

Bands

0-9

A

B

C

D

E

F

G

H

I

J

K

L

M

N

O

P

Q

R

S

T

U

V

W

X

Y

Z

Search

What

Where
 

Gorerotted - "Stab Me Till I Cum" Guitar Tab

Plain Text Version
More Gorerotted Tabs

Hits: 3433
Rated: 5.00 out of 5 (1 vote)
Updated: 2005-05-07 09:35:38

 

By:

Robbie Filth

sendpm.gif

email.gif

Important note
This tab is available online because we obtained explicit permission from Gorerotted or their label.


#----------------------------------PLEASE NOTE---------------------------------#
#This file is the author's own work and represents their interpretation of the #
#song. You may only use this file for private study, scholarship, or research. #
#Unless specified otherwise, this is NOT an official tab from the band members.#
#------------------------------------------------------------------------------#

  Visit MetalTabs.com for more metal tablature
  
Band: Gorerotted
Album: Mutilated In Minutes
Song: Stab Me Till I Cum
Tuning: D G C F A D
Record Label: IBD Records/Relapse Records

Listen to the song for all the correct rythms

I have tabbed all the riffs and put when they are first played but some
are repeated.

-----------------
-----------------
-----------------
-----------------
----2-1---5-4----
-0------2-----0--
trem.............

0.22
-------------
-------------
-------------
-------------
-3-2--3-5-2--
-1-0--1-3-0--
      pm...

0.41
--------------
--------------
--------------
--------------
---5-4---3----
-2-----5---4--
 trem.........

1.29
------------
------------
------------
------------
---3---4----
-0---1---6--
trem.......

1.36
-------------------
-------------------
-------------------
---5---------------
-2-3-3-6-5-4-3-2---
-0---1-4-3-2-1-0---
       pm. . . .

1.57
--------------------------
--------------------------
--------------------------
----2----4----2----7-6-2--
--------------------------
-00---00---00---00--------
 pm   ..   ..   ..

2.02
--------------------------
--------------------------
--------------------------
--------------------------
----2----4----2----7-6-2--
-00-0-00-2-00-0-00-5-4-0--
 pm   ..   ..   ..

2.12
----------------------------
----------------------------
----2----1----2----4---2\1--
----------------------------
----------------------------
-22---22---22---22---2------
 pm   ..   ..   ..   .

tht be all the riffs for this jolly song :P

septic_Flesh241@Hotmail.com

  Visit MetalTabs.com for more metal tablature

bottom separator

Contact Us | Privacy Policy | Disclaimer | Legal Notice
Copyright © 2001-2014 MetalTabs.com. All Rights Reserved.