top separator

Home

Forum

What's New

Submit a Tab

FAQ

Links

Contact Us

Link to Us

MuSpy.com

MetalTabs.com logo

Bands

0-9

A

B

C

D

E

F

G

H

I

J

K

L

M

N

O

P

Q

R

S

T

U

V

W

X

Y

Z

Search

What

Where
 

Gorerotted - "Masticated By The Spasticated" Guitar Tab

Plain Text Version
More Gorerotted Tabs

Hits: 3265
Rated: 4.00 out of 5 (1 vote)
Updated: 2005-05-07 09:35:24

 

By:

Robbie Filth

sendpm.gif

email.gif

Important note
This tab is available online because we obtained explicit permission from Gorerotted or their label.


#----------------------------------PLEASE NOTE---------------------------------#
#This file is the author's own work and represents their interpretation of the #
#song. You may only use this file for private study, scholarship, or research. #
#Unless specified otherwise, this is NOT an official tab from the band members.#
#------------------------------------------------------------------------------#

  Visit MetalTabs.com for more metal tablature
  
Band: Gorerotted
Album: Only Tools And Corpses
Song: Masticated By The Spasticated
Tuning: C G C F A D
Record Label: Metal Blade Records

Listen to the song for rythms

I havn't tabbed this songs structure just when the riff is first played but all
the riffs are there.

first riff
----------------------------------------------
----------------------------------------------
----------------------------------------------
-------------------------5-----6-3---2-----3--
-6/4\6--0--4/3\4--0--4/5---7-8-----4---4-5----
-6/4\6--0--4/3\4--0--4/5----------------------
       pm        pm      trem................

0.36
--------------
--------------
--------------
--------------
-------0-2-0--
-7-4-7--------

0.50
------------------
------------------
------------------
---4--------------
-2-2-2-5-2-3-2-5--
-2---2-5-2-3-2-5--
pm   .   .   .

1.38
---------------------------------------------
---------------------------------------------
---------------------------------------------
---------------------------------------------
-7-10-7-8-9-6-9-6-8-9----7-10-7-8-9-8-9-7-8--
--------8-9-------8-9-X3--------8-9-8-9-7-8--
        pm.       . .           . . . . . .
the bits between the pm's are hammer on pull offs

2.08
-------------------------------------
-------------------------------------
----------------------3333----3333---
-----33------33-----22------22-------
---22--22--22--22-11------11---------
-33------33--------------------------
all 3s 2s and 1s

tht's all of the riffs
dont send corrections cuz there aint any to be made.
septic_flesh241@hotmail.com

  Visit MetalTabs.com for more metal tablature

bottom separator

Contact Us | Privacy Policy | Disclaimer | Legal Notice
Copyright © 2001-2014 MetalTabs.com. All Rights Reserved.