top separator

Home

Forum

What's New

Submit a Tab

FAQ

Links

Contact Us

Link to Us

MetalTabs.com logo

Bands

0-9

A

B

C

D

E

F

G

H

I

J

K

L

M

N

O

P

Q

R

S

T

U

V

W

X

Y

Z

Search

What

Where
 

December Wolves - "Ode To The Master Therion" Guitar Tab

Plain Text Version
More December Wolves Tabs

Hits: 1993
Rated: 3.00 out of 5 (2 votes)
Updated: 2005-05-07 09:34:49

 

By:

Infinity

sendpm.gif

email.gif

Important note
This tab is available online because we obtained explicit permission from December Wolves or their label.


#----------------------------------PLEASE NOTE---------------------------------#
#This file is the author's own work and represents their interpretation of the #
#song. You may only use this file for private study, scholarship, or research. #
#Unless specified otherwise, this is NOT an official tab from the band members.#
#------------------------------------------------------------------------------#

  Visit MetalTabs.com for more metal tablature
  
Band: December Wolves
Album:Til Ten Years
Song: Ode to the Master Therion

Copyright (c) HAMMERHEART RECORDS  Date Released: 1996

Transcribed By: Infinity
Email:          myles_merritt@yahoo.com


.  - palm mute           /  - slide up to
\  - slide down to       ~  - vibrato
h  - hammer on           b  - Bend
p  - pull off            Suffixes for bend
t  - tap                 f  - full bend    h - half bend
ph - pinched harmonic    q  - quarter bend t - tap bend
*  - see comment         ^  - Hold bend    r release bend
x  - Stuccatto           ~  - vibrato bend
,  - slight palm mute    () - ghost note, sustained note
"  - tremolo note        <> - Trill

TUNING IS STANDARD E

Opening Riff
|-------------------------|-------------------------|
|-------------------------|-------------------------|
|-------------------------|-------------------------|
|---2-----------2-------0-|---2-----------2-----0---|
|-0---3-2h3p2-0---3-2-3---|-0---3-2h3p2-0---3-2---3-|
|-------------------------|-------------------------|

Verse Riff [there is alot of ambience over this but listen and you
will find that the riff actually is this: Treble pick everything.
|-----------------------------------------------------------------|
|-----------------------------------------------------------------|
|-----------------------------------------------------------------|
|---6-7-6---6-7-6---7-8-7---7-8-7---6-7-6---6-7-6---7-8-7---7-8-7-|
|-4-------4-------5-------5-------4-------4-------5-------5-------|
|-----------------------------------------------------------------|

After Verse riff: Best riff ever! Treble pick everything
|---------------------------------------------------------------|
|---------------------------------------------------------------|
|---------6-5-------7-6-4-----------------7-6-------8-7-5-------|
|---7-6-4-----7-6-4-------7-6-------8-7-5-----8-7-5-------8-7---|
|-4---------------------------4---5---------------------------5-|
|---------------------------------------------------------------|

Pre breakdown riff: treble pick everything
|----------------------------|---------------------------|
|----------------------------|---------------------------|
|----------------------------|-------------------------7-|
|---4-7---10---4-7---10-9----|---4-7---10---4-7---10-9---|
|-5-----8----5-----8------10-|-5-----8----5-----8--------|
|----------------------------|---------------------------|

After breakdown riff: treble pick
|----------------|-----------------------|
|----------------|-----------------------|
|----------------|-----------------------|
|-5-7-8--7-5-4-5-|-5-7-8--10-8--7-8--7-5-|
|-7-9-10-9-7-6-7-|-7-9-10-12-10-9-10-9-7-|
|----------------|-----------------------|

Variation of After breakdown riff [played slower also]
|-------------------|--------------------------|
|-------------------|--------------------------|
|-------------------|--------------------------|
|-9--11-12-11-9-8-9-|-9-11-12-14-12-11-12-11-9-|
|-7--9--10-9--7-6-7-|-7-9--10-12-10-9--10-9--7-|
|-------------------|--------------------------|

Next riff [Pre Acoustic Riff] : treble pick
|-------------------------------------------------------------------------|
|-------------------------------------------------------------------------|
|-------------------------------------------------------------------------|
|-------7-----------7-----------5-----------5-----------------------------|
|-5-8-7---8-7-5-8-7---8-7-3-6-5---6-5-3-6-5---6-5-------7-----------7-----|
|-------------------------------------------------5-8-7---8-7-5-8-7---8-7-|

Acoustic Riff
|----0-----------0-----------0-----------0--------|
|---3-3---------3-3---------3-3---------3-3-------|
|--2-----5--4--2-----5-----2-----5--4--2-----5----|
|-2-----5--4--2-----5-----2-----5--4--2-----5-----|
|0-----3--2--0-----3--2350-----3--2--0-----3--253-|
|-------------------------------------------------|

FROM HERE ON IN, THE REST OF THE SONG ARE RIFFS THAT I HAVE TRANSCRIBED
ABOVE ^ YOU SHOULD BE ABLE TO WORK IT OUT UNLESS YOU ARE RETARDED,

I'm pretty sure this tab is 100% correct. Find any errors, email me.

ENJOY! This song kicks arse so bad.
END

  Visit MetalTabs.com for more metal tablature

bottom separator

Contact Us | Privacy Policy | Disclaimer | Legal Notice
Copyright © 2001-2014 MetalTabs.com. All Rights Reserved.