top separator

Home

Forum

What's New

Submit a Tab

FAQ

Links

Contact Us

Link to Us

MuSpy.com

MetalTabs.com logo

Bands

0-9

A

B

C

D

E

F

G

H

I

J

K

L

M

N

O

P

Q

R

S

T

U

V

W

X

Y

Z

Search

What

Where
 

Burzum - "Et Hvitt Lys Over Skogen" Guitar Tab

Plain Text Version
More Burzum Tabs

Hits: 7306
Rated: 4.82 out of 5 (92 votes)
Updated: 2005-05-07 09:10:18

 

By:

nyanchuk

sendpm.gif

email.gif

Important note
This tab is available online because we obtained explicit permission from Burzum or their label.


#----------------------------------PLEASE NOTE---------------------------------#
#This file is the author's own work and represents their interpretation of the #
#song. You may only use this file for private study, scholarship, or research. #
#Unless specified otherwise, this is NOT an official tab from the band members.#
#------------------------------------------------------------------------------#

  Visit MetalTabs.com for more metal tablature
  
Band: Burzum
Song: Et hvitt Lys Over Skogen
Album: Svarte Dauen (Bootleg)
Transcribed by: nyanchuk
Contact: uklearpower@hotmail.com

Copyright (c) Misanthropy Records 1993

TUNING: E A D G B E

Intro:
|-0-------0----------------| x4
|-0-------0----------------|
|-0-------0----------------|
|-2-2222222-22222233355553-|
|-2-2222222-22222233355553-|
|-0-0000000-00000011133331-|

(E means Eleven)
|-0-------0-------0-----------------| x4
|-0-------0-------0-----------------|
|-0-------0-------0-----------------|
|-2-2222222-2222222-222222999/EEEE9-|
|-2-2222223-3333332-222222777/99997-|
|-0-0000000-0000000-000000----------|

|------------------| x4
|------------------|
|------------------|
|--2---2---0---0---|
|---2---2---3---3--|
|-0--00--01--11--1-|

|------------------| x4
|------------------|
|------------------|
|-2-2--0--2-2--0---|
|-2-2---3-2-2---3--|
|-0---1--10---1--1-|

|----------------------------------| x2
|----------------------------------|
|----------------------------------|
|-2-222-222-222-222-222-222-222-22-|
|-2-222-222-222-222-222-222-222-22-|
|-0-000-000-000-000-000-000-000-00-|
 pm................................


Verse A Riff:
|-0---------------0----------------| x4
|-0---------------0----------------|
|-0---------------0----------------|
|-2---------------0----------------|
|-2---------------3----------------|
|-0---------------1----------------|

play Verse A Riff x4 (with vocals)


Chorus Riff:
|-----------------0--------------------------------0----------------| x2
|-----------------0--------------------------------0----------------|
|-----------------0--------------------------------0----------------|
|-2-2-245-2-2-2-244-4-4-445--------2-2-245-2-2-2-244-------5---7----|
|-2-2-245-2-2-2-244-4-4-445--------2-2-245-2-2-2-244-------5---7----|
|-0-0-023-0-0-0-022-2-2-223--------0-0-023-0-0-0-022-------3---5----|


play Verse A Riff x4 (without vocals)
play Verse A Riff x4 (with vocals)
play Chorus Riff x2 (with vocals)


Interlude:
|---------------------------------
|---------------------------------
|---------------------------------
|-99-955-577-722-299-955-57-------
|-7-7-3-3-5-5-0-0-7-7-3-3-5-------
|---------------------------------

 ------------------------------------------
 ------------------------------------------
 ------------------------------------------
 -99-955-577-722-299-955-54-4-4-444-4-4-45-
 -7-7-3-3-5-5-0-0-7-7-3-3-2-2-2-222-2-2-23-
 ------------------------------------------

 ---------------------------------------------------|
 ---------------------------------------------------|
 ---------------------------------------------------|
 -5-5-5-555-5-5-577-7-7-777-7-7-799-9-9-9999999999--|
 -3-3-3-333-3-3-355-5-5-555-5-5-577-7-7-7777777777--|
 ---------------------------------------------------|

Verse B Riff:
|------------------------------------------
|------------------------------------------
|------------------------------------------
|-9-9\5-5-5/7-7-7\2-2-2/9-9-9\5-5-5/7------
|-7-7\3-3-3/5-5-5\0-0-0/7-7-7\3-3-3/5------
|------------------------------------------

 ---------------------------------------------| x2
 ---------------------------------------------|
 ---------------------------------------------|
 -9-9\5-5-5/7-7-7\2-2-2/9-9-9\5-5-5/7--/10----|
 -7-7\3-3-3/5-5-5\0-0-0/7-7-7\3-3-3/5---/8----|
 ---------------------------------------------|

play Verse B Riff x4 (with vocals)
play Verse A Riff x4 (without vocals)


Bridge Intro: (T means Ten)
|-0--------------------------------| x2
|-0--------------------------------|
|-0--------------------------------|
|-2--------------------------------|
|-2-22222233333TTT2222222233333TTT-|
|-0--------------------------------|

Bridge A:
|------------------| x4
|------------------|
|------------------|
|------------------|
|-5555885511111888-|
|------------------|
|                  |
|------------------|
|------------------|
|-7777777733333333-|
|-7777777733333333-|
|-5555555511111111-|
|------------------|

Bridge B:
|-------------0----| x8
|--------------0---|
|-5555555444----0--|
|-555555544422---2-|
|-333333322222-----|
|-----------00-----|

End of Bridge Riff:
|------------------| x4
|--------------0---|
|---00-0----220-00-|
|-22--2-2244-------|
|-2----------------|
|-0----------------|


play Verse Riff A x8 (with vocals)
play Chorus Riff x2 (with vocals)
play Chorus Riff x2 (without vocals)


Fade out over:
|---------------------------------| x2
|---------------------------------|
|---------------------------------|
|-99-955-577-722-299-955-57-------|
|-7-7-3-3-5-5-0-0-7-7-3-3-5-------|
|---------------------------------|

  Visit MetalTabs.com for more metal tablature

bottom separator

Contact Us | Privacy Policy | Disclaimer | Legal Notice
Copyright © 2001-2014 MetalTabs.com. All Rights Reserved.