top separator

Home

Forum

What's New

Submit a Tab

FAQ

Links

Contact Us

Link to Us

MetalTabs.com logo

Bands

0-9

A

B

C

D

E

F

G

H

I

J

K

L

M

N

O

P

Q

R

S

T

U

V

W

X

Y

Z

Search

What

Where
 

Burzum - "Erblicket die Tochter des Firmaments" Guitar Tab

Plain Text Version
More Burzum Tabs

Hits: 12653
Rated: 4.57 out of 5 (7 votes)
Updated: 2005-05-07 09:09:29

 

By:

nyanchuk

sendpm.gif

email.gif

Important note
This tab is available online because we obtained explicit permission from Burzum or their label.


#----------------------------------PLEASE NOTE---------------------------------#
#This file is the author's own work and represents their interpretation of the #
#song. You may only use this file for private study, scholarship, or research. #
#Unless specified otherwise, this is NOT an official tab from the band members.#
#------------------------------------------------------------------------------#

  Visit MetalTabs.com for more metal tablature
  
Band: Burzum
Song: Erblicket Die Töchter Des Firmaments
      (Beholding the Daughters of the Firmament)
Album: Filosofem
Transcribed by: nyanchuk
Contact: uklearpower@hotmail.com

Copyright (c) Misanthropy Records 1996

TUNING: E A D G B E


Riff A:
|-------------------------------|
|-------------------------------|
|-------------------------------| x4
|-4-4-4-44455-555-5-5-5-5-5-5-5-|
|-2-2-2-22222-223-3-3-3-3-3-3-3-|
|-0-0-0-00000-000-0-0-0-0-0-0-0-|

Riff B: (E means Eleven)
|-------------------------------------------------------------------|
|-------------------------------------------------------------------|
|-------------------------------------------------------------------| x2
|-9-9-9-9EE99-9-999-9-9-9EE99-9-999-9-9-9EE99-9-99-7-7-7-755-5-5-55-|
|-7-7-7-77777-7-778-8-8-88888-8-887-7-7-77777-7-77-5-5-5-533-3-3-33-|
|-0-0-0-00000-0-000-0-0-00000-0-000-0-0-00000-0-00-0-0-0-000-0-0-00-|


play Riff A x3

Riff A2:
|-------------------------------|
|-------------------------------|
|-------------------------------| x1
|-4-4-4-44455-555---------------|
|-2-2-2-22222-223--------5\44/5-|
|-0-0-0-00000-000--------3\22/3-|


Riff C:
|------------------------------------|
|------------------------------------|
|------------------------------------| x4
|-2-2-2-2-2-2-2-2-2-2-2-2-2-2--------|
|-2-2-2-2-2-2-2-2-2-2-2-2-2-2-5\44/5-|
|-0-0-0-0-0-0-0-0-0-0-0-0-0-0-3\22/3-|

Riff D:
|------------------------------------|
|------------------------------------|
|-0-0-0-0-0-0-0-0-0-0-0-0-0-0--------| x4
|-4-4-4-4-4-4-4-4-5-5-5-5-5-5--------|
|-2-2-2-2-2-2-2-2-3-3-3-3-3-3-5\44/5-|
|-0-0-0-0-0-0-0-0-0-0-0-0-0-0-3\22/3-|

play Riff C x4
play Riff D x4
play Riff C x4
play Riff D x4
play Riff C x4

play Riff A x4
play Riff B x2
play Riff A x4


Riff E:                                                                     x4
|----------------------------------------------------------------------------|
|----------------------------------------------------------------------------|
|----------------------------------------------------------------------------|
|-9-9-9-999-9-9-997-7-7-777-7--------5-5-5-4445-5-5-4445-5-5-4445-5-5--------|
|-7-7-7-777-7-7-775-5-5-555-5-5\44/5-3-3-3-2223-3-3-2223-3-3-2223-3-3-5\44/5-|
|-0-0-0-000-0-0-000-0-0-000-0-3\22/3-0-0-0-0000-0-0-0000-0-0-0000-0-0-3\22/3-|


play Riff C x4
play Riff D x8

play Riff E x7

End on:
|-----|
|-----|
|-----|
|--9--|
|--7--|
|--0--|

  Visit MetalTabs.com for more metal tablature

bottom separator

Contact Us | Privacy Policy | Disclaimer | Legal Notice
Copyright © 2001-2014 MetalTabs.com. All Rights Reserved.