top separator

Home

Forum

FAQ

Contact Us

Link to Us

MetalTabs.com logo

Bands

0-9

A

B

C

D

E

F

G

H

I

J

K

L

M

N

O

P

Q

R

S

T

U

V

W

X

Y

Z

Obituary - "Lockdown" Guitar Tab

Plain Text Version
More Obituary Tabs

Hits: 1344
Rated: 2.00 out of 5 (1 vote)
Updated: 2005-05-07 09:06:18

By:


#----------------------------------PLEASE NOTE---------------------------------#
#This file is the author's own work and represents their interpretation of the #
#song. You may only use this file for private study, scholarship, or research. #
#Unless specified otherwise, this is NOT an official tab from the band members.#
#------------------------------------------------------------------------------#

  Visit MetalTabs.com for more metal tablature
  
Band:  (OBITUARY)
Album: (BACK FORM THE DEAD)
Song:  (LOCKDOWN)

Copyright (c)  (CENTRY MEDIA) (1997)
Version 1.0 - (04-18-05)

Transcribed By: (JACK DARCY)
Email:          (METALMASTER301@AOL.COM)


X  - palm mute           /  - slide up to
\  - slide down to       ~  - vibrato
h  - hammer on           b  - Bend
p  - pull off            Suffixes for bend
t  - tap                 f  - full bend    h - half bend
ph - pinched harmonic    q  - quarter bend t - tap bend
*  - see comment         ^  - Hold bend    r release bend~  - vibrato bend
x  - slight palm mute    () - ghost note, sustained note
"  - tremolo note        <> - Trill

Tuning C F A# D# G C


I tabbed this cause I couldnít find one in C and I hate
tuning all the time It might be wrong but itís better then
some Crap Iíve seen Any questions, comments, or
corrections please E-mail ME Enjoy and please rate
this took some time to put together
 !!OBITUARY!!! ROCK ON!



Riff 1
|-----------------------------------------------------------|
|-----------------------------------------------------------|
|-----------------------------------------------------------|
|--7-6-9--6-6-6-6-6-6--7-6-9--6-6-6-6-6-6--7-6-9--6-6-6-6-6-|
|--7-6-9--6-6-6-6-6-6--7-6-9--6-6-6-6-6-6--7-6-9--6-6-6-6-6-|
|--5-4-7--4-4-4-4-4-4--5-4-7--4-4-4-4-4-4--5-4-7--4-4-4-4-4-|
          x-x-x-x-x-x         x-x-x-x-x-x         x-x-x-x-x

Part 2 (5th time play part 2 4X)
|---------------------------------------| x5
|---------------------------------------|
|---------------------------------------|
|-12-12-12-12-12-12-11-11-11-11-11-11---|
|-12-12-12-12-12-12-11-11-11-11-11-11---|
|-10-10-10-10-10-10--9--9--9--9--9--9---|

Riff 2                                  Lead
|-----------------------------------|  |------------------------------------??|
|-----------------------------------|  |------------------------------------??|
|-----------------------------------|X4|-12-11-14-16-(17)--12-11-14-17-(16)-??|
|-7--6--9-11-12--6-6--7--6--9-12-11-|  |------------------------------------??|
|-7--6--9-11-12--6-6--7--6--9-12-11-|  |------------------------------------??|
|-5--4--7-9--10--4-4--5--4--7-10--9-|  |------------------------------------??|
		      X X
Riff 3 (????? could be wrong????)
|-----------------------------------||
|-----------------------------------||
|-----------------------------------||X4
|-6-6-6-6--7-6-6-9-6-6-10-6-6-9-10-||
|-6-6-6-6--7-6-6-9-6-6-10-6-6-9-10-||
|-4-4-4-4--5-4-4-7-4-4--8-4-4-7--8-||
  X-X-X-X    X-X   X-X    X-X

Riff 2 (with lead)
Riff 1

Fill 1
||-------||
||-------||
||-------||
||-7-6-9-||
||-7-6-9-||
||-5-4-7-||

pauseÖthen

Riff 1
Fill 1

Riff 4
|-------------------------|
|-------------------------|
|-------------------------| X4
|-7--6--9-10--7--8--6-5-6-|
|-7--6--9-10--7--8--6-5-6-|
|-5--4--7--8--5--6--4-3-4-|

Riff 3 with lead (not tabbed)
Riff 2 (x2) then (x2 with lead)
Fill
Riff 1 (x1) part2 (x4)

END

  Visit MetalTabs.com for more metal tablature

bottom separator

Contact Us | Privacy Policy | Disclaimer
Copyright © 2001-2014 MetalTabs.com. All Rights Reserved.