top separator

Home

Forum

What's New

Submit a Tab

FAQ

Links

Contact Us

Link to Us

MuSpy.com

MetalTabs.com logo

Bands

0-9

A

B

C

D

E

F

G

H

I

J

K

L

M

N

O

P

Q

R

S

T

U

V

W

X

Y

Z

Search

What

Where
 

Ancient Ceremony - "Thy Beauty In Candlelight" Guitar Tab

Plain Text Version
More Ancient Ceremony Tabs

Hits: 2371
Updated: 2005-05-07 08:53:03

 

By:

Drag the Waters

sendpm.gif

email.gif

Important note
This tab is available online because we obtained explicit permission from Ancient Ceremony or their label.


#----------------------------------PLEASE NOTE---------------------------------#
#This file is the author's own work and represents their interpretation of the #
#song. You may only use this file for private study, scholarship, or research. #
#Unless specified otherwise, this is NOT an official tab from the band members.#
#------------------------------------------------------------------------------#

  Visit MetalTabs.com for more metal tablature
  
Band:  Ancient Ceremony
Album: Under Moonlight We Kiss
Song:  Thy Beauty In Candlelight

Copyright (c)  Cacophonous 1997
Version 1.0 - 4-13-05

Transcribed By: Nathan Gray
Email:          Darkthrone56@sbcglobal.net


.  - palm mute           /  - slide up to
\  - slide down to       ~  - vibrato
h  - hammer on           b  - Bend
p  - pull off            Suffixes for bend
t  - tap                 f  - full bend    h - half bend
ph - pinched harmonic    q  - quarter bend t - tap bend
*  - see comment         ^  - Hold bend    r release bend
x  - Stuccatto           ~  - vibrato bend
,  - slight palm mute    () - ghost note, sustained note
"  - tremolo note        <> - Trill

-this is my first tab and from one my favorite black metal bands, Enjoi.

Tuning E A D G B E


riff 1.
|-------------------------------------------------------------------|
|-------------------------------------------------------------------|
|-------------------------------------------------------------------|
|---------------------555-------------------------------555---------|
|-444-444-777-777-333-333-666-666---444-444-777-777-333-333-666-555-|
|-222-222-555-555-111-----444-444---222-222-555-555-111-----444-333-|
pm... ... ... ... ... ... ... ...   ... ... ... ... ... ... ... ...

|------------------------------|
|----------------------6-5h6p5-|
|------------------------------|
|------------------------------|
|-444-444-777-777-333----------|
|-222-222-555-555-111----------|
pm... ... ... ... ...

riff 2. (gtr 1)
|------------------|
|------------------|
|------------------|
|-6----4----2----7-|
|-6----4----2----7-|
|-4----2----0----5-|

(gtr 2)
|-------------------------------------|
|----------10-7-9---------------------|
|---10-11----------7--9-8-9--11-10-11-|
|-8-----------------------------------|
|-------------------------------------|
|-------------------------------------|


riff 3.
|----------------|
|----------------|
|----------------|
|----------------|
|-8"-10"--6"--4"-|
|-6"--8"--4"--2"-|


riff 4.
|-------------------------|
|-------------------------|
|-------------------------|
|-5-----4-----6-----6-----|
|-5-----4-----6-----6-----|
|-3-000-2-000-4-000-4-000-|
pm  ...   ...   ...   ...

riff 5.
|------------|
|------------|
|------------|
|------------|
|-6"--4"--7"-|
|-4"--2"--5"-|


solo
|----------------------------------------------|
|-----3-5-7-6h7p6-----6ph----------------------|
|-6-4-------------7-6---------9--10--12--9--7--|
|----------------------------------------------|
|----------------------------------------------|
|----------------------------------------------|

|------------------------------------|
|----------15--16-15-13--15-15-15-15-|
|-17-16-14---------------------------|
|------------------------------------|
|------------------------------------|
|------------------------------------|

|-----------------------------------------------|
|----------15--16-15-13-17p16p14-18p17p15-19-19-|
|-17-16-14--------------------------------------|
|-----------------------------------------------|
|-----------------------------------------------|
|-----------------------------------------------|

|------------------------------------|
|----------15--16-15-13--15-16-19-18-|
|-17-16-14---------------------------|
|------------------------------------|
|------------------------------------|
|------------------------------------|

|-----------------------------------------|
|----------15--16-15-13-------------------|
|-17-16-14--------------14-11-12-11h12p11-|
|-----------------------------------------|
|-----------------------------------------|
|-----------------------------------------|


after solo
|-------------------------------------------------------------|
|-9-7h8p7-8--6-7-6h7p6-5----9-7h8p7-8--6-7-6h7p6-5-4----------|
|----------------------------------------------------7-5-4ph--|
|-------------------------------------------------------------|
|-------------------------------------------------------------|
|-------------------------------------------------------------|


riff 6.
|----------------------------|
|----------------------------|
|----------------------------|
|-2---4---1---3--------------|
|---0---0---0----444-444-444-|
|----------------222-222-222-|
pm  .   .   .    ... ... ...

riff 7.
|------------------------|
|------------------------|
|------------------------|
|-2-2-------------2-2--2-|
|-2-2-------------2-2--2-|
|-0-0-------------0-0--0-|


riff 8a.
|--------------------------------|
|--------------------------------|
|--------------------------------|
|--------------------------------|
|-----------------------222--4ph-|
|-000050304---000050304-000------|
pm.........   ......... ...

riff 8b.
|--------------------|
|--------------------|
|--------------------|
|--------------------|
|-----------222--4ph-|
|-000050304-000------|
pm......... ...

riff 9.
|---------------------------------|---------------------------------|
|---------------------------------|---------------------------------|
|---------------------------------|---------------------------------|
|-4-4-444-4-4-444-4-4-444-333-333-|-4-4-444-4-4-444-4-4-444-333-555-|
|-4-4-444-4-4-444-4-4-444-333-333-|-4-4-444-4-4-444-4-4-444-333-555-|
|-2-2-222-2-2-222-2-2-222-111-111-|-2-2-222-2-2-222-2-2-222-111-333-|
pm. . ... . . ... . . ... ... ...   . . ... . . ... . . ... ... ...

riff 10.
|-----------------------------------------|
|-----------------------------------------|
|-------7---------7---------7---------7---|
|---666---6---666---6---666---6---666---6-|
|-4---------4---------4---------4---------|
|-----------------------------------------|


riff 11.
|------------------------|-----|
|------------------------|-----|
|------------------------|-----|
|-5"--7"--9"--6"--9"--7"-|--6--|
|-3"--5"--7"--4"--7"--5"-|--4--|
|------------------------|-----|


END.

  Visit MetalTabs.com for more metal tablature

bottom separator

Contact Us | Privacy Policy | Disclaimer | Legal Notice
Copyright © 2001-2014 MetalTabs.com. All Rights Reserved.