top separator

Home

Forum

What's New

Submit a Tab

FAQ

Links

Contact Us

Link to Us

MetalTabs.com logo

Bands

0-9

A

B

C

D

E

F

G

H

I

J

K

L

M

N

O

P

Q

R

S

T

U

V

W

X

Y

Z

Search

What

Where
 

Odious Mortem - "Caverns of Reason" Guitar Tab

Plain Text Version
More Odious Mortem Tabs

Hits: 3115
Rated: 5.00 out of 5 (2 votes)
Updated: 2005-05-07 08:51:22

 

By:

Yura

sendpm.gif

email.gif

Important note
This tab is available online because we obtained explicit permission from Odious Mortem or their label.


#----------------------------------PLEASE NOTE---------------------------------#
#This file is the author's own work and represents their interpretation of the #
#song. You may only use this file for private study, scholarship, or research. #
#Unless specified otherwise, this is NOT an official tab from the band members.#
#------------------------------------------------------------------------------#

  Visit MetalTabs.com for more metal tablature
  
--- ODIUS MORTEM ---
                           "Caverns Of Reason"
                     From album: "Devouring The Prophecy"
                     Copyright Unique Leader 2005 
                     Transcribed by: Yura Kowalchuk
                     Contact:[yura@grindcore.net]
                             [yura_kowalchuk@mail.ru]
                    http://brutaltabs.musica.mustdie.ru
                    http://www.blood-scrapes.nm.ru

                            TABULATURE LEGEND:
                   " - tremolo             h - hammer on
                   ~ - vibrato             \ - slide down
                   p - pull off            / - slide down
                  tr - tremolo picking     ^ - pinch harmonics
                   = - sustained note      b - bend string
                p.m. - palm muting         t - tapping

TUNING: C# [C#,F#,B,e,g#,c#]

[Intro]
||----------------------||
||----------------------||
||----------------------||
||-7--6--7--8--7--5--6--||
||-5--4--5--6--5--3--4--||
||-5--4--5--6--5--3--4--||
   .  .  .  .  .  .  .

[Part 1]
||-----------------|-----------------|------------------|-
||-----------------|-----------------|------------------|-
||---------5-------|-----------------|------------------|-
||-----4-----4-3-5-|-------7---------|---8-------10-----|-
||---3---3---------|-4-------6---7---|-7-----7-8----9---|-
||-2---------------|---3-5-----5---6-|-----6----------8-|-
   . . . . . . . .   . . . . . . . .   . . . . . .  . .

-|-----------------|-----------------|-----------------|-----------------|-
-|-----------------|-----------------|-----------------|-----------------|-
-|-----------------|-----------------|---------5-------|-----------------|-
-|-----------------|-----7-5---------|-----4-----4-----|-5---------7-----|-
-|-9-8---8-7---7-6-|---6-----4---4-3-|---3---3-----3-4-|---4---------6---|-
-|-----7-----6-----|-5---------3-----|-2---------------|-----3-4-5-----5-|-
   . . . . . . . .   . . . . . . . .   . . . . . . . .   . . . . . . . .

-|-----------------|-----------------|--------------|-
-|-----------------|-----------------|--------------|-
-|-----------------|---------8-------|--------------|-
-|---------8-----9-|-----------7-8-7-|-----7--------|-
-|---7-------7-8---|-8---------------|-8-7---7-6----|-
-|-6---7-6---------|---7-8-7---------|-----------7--|-
   . . . . . . . .   . . . . . . . .   . . . . . .

-|-----------------|------------------|-----------------|------------------|-
-|-----------------|------------------|-----------------|------------------|-
-|---------9-------|------------------|-7-------6-------|---------10-------|-
-|-----8-----8-----|-10---------------|---9-------7-----|-----9------9-----|-
-|---7---7-----7-8-|----9---8-7---7-8-|-----8-7-----7-6-|---8---8------7-8-|-
-|-6---------------|------8-----6-----|-----------------|-7----------------|-
   . . . . . . . .   .  . . . . . . .   . . . . . . . .   . . . . .  . . .

-|------------------|-----------------|-----------------|-----------------|-
-|------------------|-----------------|-----------------|-----------------|-
-|------------------|-7-------6-------|---------5-------|-----------------|-
-|-10---------------|---9-------7-----|-----4-----4-----|-5---------7-----|-
-|----9---8-7---7-8-|-----8-7-----7-6-|---3---3-----3-4-|---4---------6---|-
-|------8-----6-----|-----------------|-2---------------|-----3-4-5-----5-|-
   .  . . . . . . .   . . . . . . . .   . . . . . . . .   . . . . . . . .

                                                       /Break/
-|-----------------|-----------------|----------------|-------|-
-|-----------------|-----------------|----------------|-------|-
-|-----------------|---------8-------|----------------|-------|-
-|---------8-----9-|-----------7-8-7-|-----7----------|-------|-
-|---7-------7-8---|-8---------------|-8-7---7-6------|-------|-
-|-6---7-6---------|---7-8-7---------|-----------7-6--|-------|-
   . . . . . . . .   . . . . . . . .   . . . . . . .

-|-----------------|------------------|-----------------||
-|-----------------|------------------|-----------------||
-|---------9-------|------------------|-7-------6-------||
-|-----8-----8-----|-10---------------|---9-------7-----||
-|---7---7-----7-8-|----9---8-7---7-8-|-----8-7-----7-6-||
-|-6---------------|------8-----6-----|-----------------||
   . . . . . . . .   .  . . . . . . .   . . . . . . . .

[Part 2 (x4)]
||-------------------------------------------|-
||o------------------------------------------|-
||-------------------------------------------|-
||-------------------------------------------|-
||o----------------------3-----------3-------|-
||--22220000111133330000---4-3-0-2-1---4-3-0-|-
                         . . . . . . . . . .

-|---------------------------------------------------||
-|--------------------------------------------------o||
-|---------------------------------------------------||
-|----------------------------------3-----------4----||
-|----------------------3-------4-6---6-4-3-4-6---7-o||
-|-22220000111133330000---4-3-0----------------------||
                        . . . . . . . . . . . . . .

                   [Part 3 (x2)]
|----------------||---------------------------------------------------
|----------------||o--------------------------------------------------
|----------------||---------------------------------------------------
|-7--6--1--------||---------------------------------------------------
|-5--4--1--3--4--||o--------------------------------------------------
|-5--4-----3--4--||--222200001111333366667777666655555555444422220000-
  .  .

-----------------------------------------------------------||
----------------------------------------------------------o||
-----------------------------------------------------------||
----------------------------------8---------7-5---------3--||
------------------------------------------6-----4-----3---o||
-11113333666677776666555555554444---5-6-5---------3-4------||
                                  . . . . . . . . . . . .

[Part 4 (x2)]
||-----------------------------------------------|-
||o----------------------------------------------|-
||-----------------------------------------------|-
||-----------------------------------------------|-
||o----------------------------------------------|-
||--22220000444433333333333322223333222200004444-|-


-|------------------------------------^------------------||
-|------------------------------------4~----------------o||
-|-------------------------------------------------------||
-|-----------------333322225555--------------------2-----||
-|-------------3333-------------5--4------5--4--5--2--3-o||
-|-333366665555-----------------5--4------5--4--5-----3--||
                                .  .      .  .  .  .  .

[Outro]
||-----------------------------------------|-
||-----------------------------------------|-
||-----------------------------------------|-
||---------4h7p4---------4h7p4-5h8p5-4h7p4-|-
||-----3-6-----------3-6-------------------|-
||-2-5-----------2-5-----------------------|-
   . . . .       . . . .

-|--------------------------------------------------------------||
-|---------------------------------------5h8p5------------------||
-|---------------------------------------------5h8p5------------||
-|---------4h7p4-------------------4h7p4-------------4h7p4-5----||
-|-----3-6-----------5h8p5-----3-6------------------------------||
-|-2-5-----------2-5-------2-5----------------------------------||
   . . . .       . .       . . . .

[Part 5 (x3)]
||-----^---------------------------------------^----------^------------
||o---[8]~~------^--^-------------------------[8]-^------[8]----[8]~~--
||--------------[7][8]---------------------------[7]-------------------
||---------------------------------5-----------------------------------
||o------------------------4-------5-----------------------------------
||--5---------5--------0-5---5-4-5----6-5-6-5---------0-0-----5--------
                       . . . . . .    . . . .         . .

---------------------------------|--------^----^-------------------------||
----^--^-------------------------|--^----[7]--[8]-^----^----------------o||
---[7][8]------------------------|-[5]-----------[6]--[7]-^----^---------||
----------------------5----------|-----------------------[5]--[6]---^----||
--------------4-------5----------|---------------------------------[5]--o||
-5--------0-5---5-4-5----6-5-6-5-|---------------------------------------||
          . . . . . .    . . . .

[Part 6]
||------------------------------|-
||o-----------------------------|-
||------------------------------|-
||------------------------------|-
||o-12p8p5-11p7p4-12p8p5-11p7p4-|-
||------------------------------|-
    T      T      T      T
                                                  3x
-|-----------------------------|------------------||-
-|-----------------------------|-----------------o||-
-|-----------------------------|------------------||-
-|-----------------------------|------------------||-
-|-12p8p5-13p9p6-12p8p5-13p9p6-|-14p10p9-13p9p6--o||-
-|-----------------------------|------------------||-
   T      T      T      T        T       T

-|-----------------------------|-----------------------------|-
-|-----------------------------|-----------------------------|-
-|-----------------------------|-----------------------------|-
-|-----------------------------|-----------------------------|-
-|-12p8p5-11p7p4---------------|-12p8p5-11p7p4-12p8p5-11p7p4-|-
-|---------------11p7p4-10p6p3-|-----------------------------|-
    T      T      T      T        T       T    T      T

-|------------------------------|-----------------------------|
-|------------------------------|-----------------------------|
-|------------------------------|-----------------------------|
-|------------------------------|-----------------------------|
-|-11p7p4-12p8p5----------------|-12p8p5-11p7p4---------------|
-|---------------11p7p4-10p6p3--|---------------11p7p4-10p6p3-|
   T      T      T      T         T      T      T      T

[Part 7]
||--------------------|------^--------------|-
||o-------------------|-----[8]~~-----------|-
||--------------------|-----------------^---|-
||--8-----------------|----------------[8]--|-
||o---8------9-8------|---------------------|-
||------10-9-----10-9-|-5-5--------5-5------|-
    . . .  . . . .  .   . .        . .

-|-----------------|--------------------------------
-|-----------------|--------------------------------
-|-----------------|--------------------------------
-|-----------------|--------------------------------
-|-----4-------5---|--------------------------6--5--
-|-0-5---5-4-5---6-|-554466665544666655665555-6--5--

-------------------|------^--------------|-
-------------------|-----[8]~~-----------|-
-------------------|-----------------^---|-
-8-----------------|----------------[8]--|-
---8------9-8------|---------------------|-
-----10-9-----10-9-|-5-5--------5-5------|-
 . . .  . . . .  .   . .        . .

-|-----------------|-
-|-----------------|-
-|-----------------|-
-|-----------------|-
-|-----4-------5---|-
-|-0-5---5-4-5---6-|-
   . . . . . . . .

[Ending 1]                             [Ending 2]
------------------------------------|| -------------------------------------|
-----------------------------------o|| -------------------------------------|
------------------------------------|| -------------------------------------|
------------------------------------|| -------------------------------------|
--------------------------6--5--4--o|| --------------------------6--5--4--3-|
-554466665544666655665555-6--5--4---|| -554466665544666655665555-6--5--4--3-|
                          .  .  .                                .  .  .  .

[Part 7 (x4)]
||--------------|-------------|-------------|-------------|--------||
||o-------------|-------------|-------------|-------------|-------o||
||--------------|-------------|-------------|-------------|--------||
||--------------|-------------|-------------|-------------|--------||
||o-5--4--5--6--|-5--3--4--5--|-4--6--3--4--|-5--4--5--6--|-3--4--o||
||--5--4--5--6--|-5--3--4--5--|-4--6--3--4--|-5--4--5--6--|-3--4---||
    .  .  .  .    .  .  .  .    .  .  .  .    .  .  .  .

[Part 8]
||-------------------|------------------------------|---------------|-
||-------------------|------------------------------|---------------|-
||-------------------|------------------------------|---------------|-
||-------------------|-8----------7-----------------|-8-------------|-
||-5--4--5--6--3--4--|---9-8-7-6----8-7---6---6--5--|---9-8-7-6--5--|-
||-5--4--5--6--3--4--|---------6--------8---7-6--5--|---------6--5--|-
   .  .  .  .  .  .    . . . . .  . . . . . . .  .    . . . . .  .

-|-----------------|-------------|-------------|-------------|-
-|-----------------|-------------|-------------|-------------|-
-|-----------------|-------------|-------------|-------------|-
-|-----------------|-------------|-------------|-------------|-
-|-----4-------5---|-5--4--5--6--|-5--3--4--5--|-4--6--3--4--|-
-|-4-5---5-5-6---6-|-5--4--5--6--|-5--3--4--5--|-4--6--3--4--|-
   . . . . . . . .   .  .  . .     .  .  .  .    .  .  .  .

-|----------------|---------------|-----------------|-------------|-
-|----------------|---------------|-----------------|-------------|-
-|----------------|---------------|-----------------|-------------|-
-|-8----------7---|---------------|-----------------|-------------|-
-|---9-8-7-6----8-|-7---6---6--5--|-----4-------5---|-5--4--5--6--|-
-|---------6------|---8---7-6--5--|-4-5---5-5-6---6-|-5--4--5--6--|-
   . . . . .  . .   . . . . .  .    . . . . . . . .   .  .  .  .

-|-------------|-------------|----------------
-|-------------|-------------|----------------
-|-------------|-------------|----------------
-|-------------|-------------|-8----------7---
-|-5--3--4--5--|-4--6--3--4--|---9-8-7-6----8-
-|-5--3--4--5--|-4--6--3--4--|---------6------
   .  .  .  .    .  .  .  .    . . . . .  . .

---------------|---------------------------------|-
---------------|---------------------------------|-
---------------|---------------------------------|-
---------------|-8-----------7-----------6-------|-
-7---6---6--5--|---9-8-7-8-7---8-7-6-7-6---7-6-5-|-
---8---7-6--5--|---------6-5---------5-4---------|-
 . . . . .  .    . . . . . . . . . . . . . . . .

-|-----------------|------^--------------|----------------------||
-|-----------------|-----[8]~~~----------|----------------------||
-|-----------------|-----------------^---|----------------------||
-|-----------------|----------------[8]--|----------------------||
-|-----4-------5---|---------------------|-5--4--5--6--5--3--4--||
-|-4-5---5-5-6---6-|-5-5--------5-5------|-5--4--5--6--5--3--4--||
   . . . . . . . .   . .        . .        .  .  .  .  .  .  .

END OF SONG

  Visit MetalTabs.com for more metal tablature

bottom separator

Contact Us | Privacy Policy | Disclaimer | Legal Notice
Copyright © 2001-2014 MetalTabs.com. All Rights Reserved.