top separator

Home

Forum

What's New

Submit a Tab

FAQ

Links

Contact Us

Link to Us

MuSpy.com

MetalTabs.com logo

Bands

0-9

A

B

C

D

E

F

G

H

I

J

K

L

M

N

O

P

Q

R

S

T

U

V

W

X

Y

Z

Search

What

Where
 

Allfather - "Invictus" Guitar Tab

Plain Text Version
More Allfather Tabs

Hits: 2584
Rated: 5.00 out of 5 (3 votes)
Updated: 2005-05-06 08:23:17

 

By:

nyanchuk

sendpm.gif

email.gif

Important note
This tab is available online because we obtained explicit permission from Allfather or their label.


#----------------------------------PLEASE NOTE---------------------------------#
#This file is the author's own work and represents their interpretation of the #
#song. You may only use this file for private study, scholarship, or research. #
#Unless specified otherwise, this is NOT an official tab from the band members.#
#------------------------------------------------------------------------------#

  Visit MetalTabs.com for more metal tablature
  
Band:  Allfather
Album: Weapon of Ascension
Song:  Invictus

Copyright (c)  Invictus Productions (2005)

Transcribed By: nyanchuk
Email:          uklearpower@hotmail.com

Tuning E A D G B E

Intro:
|--------------------------|
|--------------------------|
|--------------------------|
|-2-------------------3566-|
|-2-------------------3566-|
|-0-------------------1344-|

Riff A:
|--------------| x4
|--------------|
|--------------|
|-223355223566-|
|-223355223566-|
|-001133001344-|

Riff A2 (Riff A with other guitar playing octave up):
|-------------------------| x3
|-------------------------|
|-9-910101212-9-910121313-|
|-9-910101212-9-910121313-|
|-7-7-8-81010-7-7-8101111-|
|-------------------------|
|                         |
|-------------------------| x3
|-------------------------|
|-------------------------|
|-2-2-3-3-5-5-2-2-3-5-6-6-|
|-2-2-3-3-5-5-2-2-3-5-6-6-|
|-0-0-1-1-3-3-0-0-1-3-4-4-|
|-------------------------|

Riff A3:
|-------------------------| x1
|-------------------------|
|-9-910101212-9-9---------|
|-9-910101212-9-9-3-5-6-6-|
|-7-7-8-81010-7-7-3-5-6-6-|
|-----------------1-3-4-4-|
|                         |
|-------------------------| x1
|-------------------------|
|-------------------------|
|-2-2-3-3-5-5-2-2-3-5-6-6-|
|-2-2-3-3-5-5-2-2-3-5-6-6-|
|-0-0-1-1-3-3-0-0-1-3-4-4-|


Riff B:

|-----------------------------------------------------------------| x1
|-----------------------------------------------------------------|
|-7-7-----7-71010-7-7-----7-7-8-7-7-7-----7-71010-7-7---------8-\\|
|-7-7-6-6-7-71010-7-7-6-6-7-7-8-7-7-7-6-6-7-71010-7-7-6-6-8-7-8-\\|
|-5-5-6-6-5-5-8-8-5-5-6-6-5-5-6-5-5-5-6-6-5-5-8-8-5-5-6-6-8-7-6-\\|
|-----4-4-------------4-4-------------4-4-------------4-4-6-5-----|

Riff C:
|------------------| x1
|------------------|
|------------------|
|------------------|
|-1--43--21---43---|
|--21--43--210--43-|

play Riff B x1

Riff B continued:
|---------------------------------| x1
|---------------------------------|
|-7-7-----7-71010-7-7---------8-\\|
|-7-7-6-6-7-71010-7-7-6-6-8-7-8-\\|
|-5-5-6-6-5-5-8-8-5-5-6-6-8-7-6-\\|
|-----4-4-------------4-4-6-5-----|

Fill:
|--------------|
|--------------|
|--------------|
|-2-------3566-|
|-2-------3566-|
|-0-------1344-|

play Riff A2 x3

Riff D:
|-------------------------------------| x2
|-------------------------------------|
|-------------------------------------|
|-------------------------------------|
|-6-6-6-6-5-5-6-6-6-6-5-5-6-6-8-8-9-9-|
|-8-8-8-8-7-7-8-8-8-8-7-7-8-810101111-|

MIDDLE PART:
|------------------------------------------------------------------| x2
|------------------------------------------------------------------|
|-----------------44444444-----------------------------------------|
|-555555554444444455555555--------22222222222244442222222222224444-|
|-7777777755555555--------5555555533333333333355553333333333335555-|
|-------------------------77777777---------------------------------|

Riff C2:
|------------------| x1
|------------------|
|------------------|
|-------------5555-|
|-1--43--21---3333-|
|--21--43--210-----|

Riff E:
|------------------------------------------| x6
|------------------------------------------|
|--9-91010-9-91010-9-91010-9-91010-5-5-5-5-|
|--9-91010-9-91010-9-91010-9-91010-5-5-5-5-|
|--7-7-8-8-7-7-8-8-7-7-8-8-7-7-8-8-3-3-3-3-|
|------------------------------------------|

play Riff D x2

Riff F:
|--------------------------------------------------| x1
|--------------------------------------------------|
|--------------------------------------------------|
|--------------------------------------------------|
|-775577004433333377557700004444337755770044333333-|
|-000000115544444400000011115555440000001155444444-|

Riff G:
|------------------| x14
|------------------|
|------------------|
|-88----4-44444444-|
|-6677335-55555555-|
|---5511-----------|

End with:
|-------------------------------|
|-------------------------------|
|-------------------------------|
|-88----4-let ring--------------|
|-6677335-----------------------|
|---5511------------------------|




END

  Visit MetalTabs.com for more metal tablature

bottom separator

Contact Us | Privacy Policy | Disclaimer | Legal Notice
Copyright © 2001-2014 MetalTabs.com. All Rights Reserved.