top separator

Home

Forum

What's New

Submit a Tab

FAQ

Links

Contact Us

Link to Us

MetalTabs.com logo

Bands

0-9

A

B

C

D

E

F

G

H

I

J

K

L

M

N

O

P

Q

R

S

T

U

V

W

X

Y

Z

Search

What

Where
 

Prayer for Cleansing - "A Dozen Black Roses (Intro)" Guitar Tab

Plain Text Version
More Prayer for Cleansing Tabs

Hits: 3768
Rated: 3.00 out of 5 (1 vote)
Updated: 2005-10-12 06:09:54

 

By:

SicSyco

sendpm.gif

email.gif

Important note
This tab is available online because we obtained explicit permission from Prayer for Cleansing or their label.


#----------------------------------PLEASE NOTE---------------------------------#
#This file is the author's own work and represents their interpretation of the #
#song. You may only use this file for private study, scholarship, or research. #
#Unless specified otherwise, this is NOT an official tab from the band members.#
#------------------------------------------------------------------------------#

  Visit MetalTabs.com for more metal tablature
  
Band:  Prayer for Cleansing
Album: The Rain in Endless Fall
Song:  A Dozen Black Roses

Copyright (c)  Tribunal (1999)
Version 2.0 - 10-1-2005

Transcribed By: SicSyco
Email:          mrblack420@msn.com

Tuning: C# F# B E G# C#
GTR 1
 Riff 1
|------------------------5-7--------|
|-------------7h8p7--8~-7-----------|
|-4h5-4h5-7b~-------7--------7~-5-4-|
|-----------------------------------|
|-----------------------------------|
|-----------------------------------|
 Riff 2
|----------------------|
|----------------------|
|--5p4-5p4-7-5-4-2---4-|
|------------------5---|
|----------------------|
|----------------------|

GTR 2
 Riff 1
|------------------------------------------|
|-----------------------------10-12--------|
|-------------12h13p12--13~-12-------------|
|-9h10-9h10-12~-------12----------12~-10-9-|
|------------------------------------------|
|------------------------------------------|
 Riff 2
|-------------------------|
|-------------------------|
|-------------------------|
|-10p9-10p9----10-9-7--9~-|
|-----------7--------10---|
|-------------------------|

play Riff 1 x2
     Riff 2 x8 (or maybe 10...)

  Visit MetalTabs.com for more metal tablature

bottom separator

Contact Us | Privacy Policy | Disclaimer | Legal Notice
Copyright © 2001-2014 MetalTabs.com. All Rights Reserved.