top separator

Home

Forum

What's New

Submit a Tab

FAQ

Links

Contact Us

Link to Us

MuSpy.com

MetalTabs.com logo

Bands

0-9

A

B

C

D

E

F

G

H

I

J

K

L

M

N

O

P

Q

R

S

T

U

V

W

X

Y

Z

Search

What

Where
 

Internal Suffering - "The Antiquary Horror" Guitar Tab

Plain Text Version
More Internal Suffering Tabs

Hits: 3247
Rated: 5.00 out of 5 (2 votes)
Updated: 2005-05-06 08:05:20

 

By:

BestialWarrior

sendpm.gif

email.gif

Important note
This tab is available online because we obtained explicit permission from Internal Suffering or their label.


#----------------------------------PLEASE NOTE---------------------------------#
#This file is the author's own work and represents their interpretation of the #
#song. You may only use this file for private study, scholarship, or research. #
#Unless specified otherwise, this is NOT an official tab from the band members.#
#------------------------------------------------------------------------------#

  Visit MetalTabs.com for more metal tablature
  
Band:  (INTERNAL SUFFERING)
Album: (CHAOTIC MATRIX)
Song:  (THE ANTIQUARY HORROR "AT THE EDGE OF MADNESS")

Copyright (c)  (DISPLEASED RECORDS) (2001)
Version 1.0 - (4-04-05)

Transcribed By: (BestialWarrior)
Email:          (Bestialson2003@yahoo.com)


.  - palm mute           /  - slide up to
\  - slide down to       ~  - vibrato
h  - hammer on           b  - Bend
p  - pull off            Suffixes for bend
t  - tap                 f  - full bend    h - half bend
ph - pinched harmonic    q  - quarter bend t - tap bend
*  - see comment         ^  - Hold bend    r release bend
x  - Stuccatto           ~  - vibrato bend
,  - slight palm mute    () - ghost note, sustained note
"  - tremolo note        <> - Trill
S  - Sustained Chord,note

Tunning : B STANDARD.

NOTE: ON RIFF#6, I JUST MADE IT ONE RIFF INSTEAD OF THE THREE
PARTS IT REALLY COMPRISES..THAT WAY NOONE GETS CONFUSED,ETC.

INTRO Riff#1.
|-----------------------||
|-----------------------||
|-----------------------||
|5--4--7--8--5--4-------||
|3--2--5--6--3--2--5--6-||
|------------------3--4-||
 .  .  .  .  .  .  .  .

Riff#2. FAST/SLIGHT PALM MUTE../TREM PICK..EXCEPT WHERE INDICATED.
                             (2X)
|------------------------------------------------------------------
|------------------------------------------------------------------
|------------------------------------------"--"--------------------
|"--"--"--"--"--"--------"--"--"--"--"--"--5--6--"--"--"--"--"--"--
|3--2--5--6--3--2--"--"--3--2--5--6--3--2--------3--2--5--6--3--2--
|------------------3--4--------------------------------------------

Riff#2. Continued..
|-----------------------------||
|-----------------------------||
|-----------------------------||
|------"--"--"--"--"--"-------||
|"--"--3--2--5--6--3--2--5--6-||
|3--4--------------------3--4-||
                         .  .

RIFF#3.FAST/SLIGHT PALM MUTE ..TREM PICK..EXCEPT WHERE INDICATED.
                (4X)
|---------------------------------------------||
|---------------------------------------------||
|"-------------"--"--"--"---------------------||
|5-------------6--7--6--5---------------------||
|----"--"--"----------------"--"--------------||
|----3--4--5----------------3--4--5--3--4--3--||
                                     .  .  .

RIFF#4.FAST/TREM PICK.(2X)
|-------------------------------------------------||
|-------------------------------------------------||
|"-------------"------------"------------"--"--"--||
|5--"----------5--"---------5--"---------6--7--6--||
|---4--"----------4--"---------4--"---------------||
|------3-------------3------------3---------------||

RIFF#5.FAST SLIDING/PICKING..(1X)
|---------------------------------------------------------------
|---------------------------------------------------------------
|---------------------------------------------------------------
|---------------------------------------------------------------
|6\-5-5-4-5--6-5-4-5--6\-5-5-4-5--6-5-4-5--6\-5-5-4-5--6-5-4-5--
|4\-3-3-2-3--4-3-2-3--4\-3-3-2-3--4-3-2-3--4\-3-3-2-3--4-3-2-3--
             . . . .              . . . .              . . . .

RIFF#5. CONTINUED..
|----------||
|----------||
|----------||
|----------||
|6\5-5-4-5-||
|4\3-3-2-3-||

RIFF#6..SLOW/HEAVY..PALM MUTE.(1x)
|----------------------------------------------------------------
|----------------------------------------------------------------
|----------------------------------------------------------------
|-----------------------------------------------------------(PH)-
|6---5---4---5---6---5---4---5---6---5---4---5---4---5---4---4---
|4---3---2---3---4---3---2---3---4---3---2---3---2---3---2-------
 .   .   .   .   .   .   .   .   .   .   .   .   .       .

RIFF#6.CONTINUED..
|-----------------------------------------------------------------
|-----------------------------------------------------------------
|-----------------------------------------------------------------
|-----------------------------------------------10\-9--9-10\-9--9-
|6---5---4---5---6---5---4---5---6---5---4---5---8\-7--7--8\-7--7-
|4---3---2---3---4---3---2---3---4---3---2---3---8\-7--7--8\-7--7-
 .   .   .   .   .   .   .   .   .   .   .   .

RIFF#6.CONTINUED..PALM MUTED GALLOPING..EXCEPT WHERE NOT
INDICATED.
|-----------------------------------------------------------------
|-----------------------------------------------------------------
|-----------------------------------------------------------------
|-G----G----G----G----G----G----G----G----G----G----G----G----G---
|666--555--444--555--666--555--444--555--666--555--444--555--444--
|444--333--222--333--444--333--222--333--444--333--222--333--222--
 ...  ...  ...  ...  ...  ...  ...  ...  ...  ...  ...  ...  ...

RIFF#6. CONTINUED..
|------------------------------------------------------------------
|------------------------------------------------------------------
|------------------------------------------------------------------
|----G--(PH)-------------------------------------------------10\-9-
|5--444--4----6---5---4---5---6---5---4---5---6---5---4---5---8\-7-
|3--222-------4---3---2---3---4---3---2---3---4---3---2---3---8\-7-
    ...       .   .   .   .   .   .   .   .   .   .   .   .

RIFF#6. CONTINUED..
|-------------||
|-------------||
|-------------||
|-9-10\-9--9--||
|-7--8\-7--7--||
|-7--8\-7--7--||

REPEAT RIFF#2.(2X)

RIFF#7A. SLIGHTLY FAST..TREM PICK WHERE INDICATED..(2X)
|----------------------------------------------------||
|----------------------------------------------------||
|------------"---------"---------------"---------"---||
|------------5---------5---------------5---------6---||
|5--6--5--6------5--6------5--6--5--6------5--6------||
|3--4--3--4------3--4------3--4--3--4------3--4------||
 .  .  .  .      .  .      .  .  .  .      .  .

RIFF#7B. SLIGHTLY FAST..LIKE ABOVE..(2X)
*NOTE.ON THE LAST CHORD OF THE FINAL TIME..DON'T LET IT RING.
|----------------------------------------------------||
|----------------------------------------------------||
|------------------------------------------------*---||
|------------5---------5---------------5---------6---||
|5--6--5--6--5---5--6--5---5--6--5--6--5---5--6--6---||
|3--4--3--4------3--4------3--4--3--4------3--4------||
 .  .  .  .      .  .      .  .  .  .      .  .

RIFF#8. FAST/TREM PICK.Slight Palm Mute.
|----------------------------------------------------||
|----------------------------------------------------||
|------------------------------------------------(ph)||
|-------------------------------------------------5--||
|6665---5554-----------------------------------------||
|-----6------444555444333444333555333444333555333----||
 ,,,,,,,,,,,,,,,,,,,,,,,,,,,,,,,,,,,,,,,,,,,,,,,,

RIFF#9A.Fast/hardcore like choppy rythym..palm muted..Except where
not indicated..
|-------------------------------------------------------------------
|-------------------------------------------------------------------
|-------------------------------------------------------------------
|3-----------3-----------3-----------3-----------3-----------3------
|3-5-4-5-3-5-3-5-4-5-3-5-3-5-4-5-3-5-3-5-4-5-3-5-3-5-4-5-3-5-3-5-4-5
|--3-2-3-1-3---3-2-3-1-3---3-2-3-1-3---3-2-3-1-3---3-2-3-1-3---3-2-3
 . . . . . . . . . . . . . . . . . . . . . .     . . . . . . . . . .

      *(Slow down right here about half time roughly).
|---------------------||
|---------------------||
|----*----------------||
|----3----------------||
|3-5-3-5--4--5--3--5--||
|1-3---3--2--3--1--3--||
 . . . .  .  .  .  .

RIFF#9B.(OR THIS ONE..)
* WHEN LISTENING TO THE CD, YOU'LL HEAR TWO DRUM CRASHES..
THEN CONTINUE THE REST OF THE RIFF..
|------------------------------------------------------------------
|------------------------------------------------------------------
|------------------------------------------------------------------
|3-----------------3-----------------3-----------------3--------*--
|3--5--4--5--3--5--3--5--4--5--3--5--3--5--4--5--3--5--3--5--4--5--
|---3--2--3--1--3-----3--2--3--1--3-----3--2--3--1--3-----3--2--3--
    .  .  .  .  .     .  .  .  .  .     .  .  .  .  .     .  .

RIFF#9B CONTINUED..
|------------------------------------------------------------------
|------------------------------------------------------------------
|------------------------------------------------------------------
|3-----------------3-----------------3-----------------3-----------
|3--5--4--5--3--5--3--5--4--5--3--5--3--5--4--5--3--5--3--5--4--5--
|---3--2--3--1--3-----3--2--3--1--3-----3--2--3--1--3-----3--2--3--
    .  .  .  .  .     .  .  .  .  .     .  .  .  .  .     .  .  .

RIFF#9B CONTINUED..
|---------------------||
|---------------------||
|---------------------||
|3--4--3--------------||
|3--4--3--5--5--5--5--||
|---------3--3--3--3--||
          .  .  .  .

RIFF#10.INTERLUDE RIFF..
|-------------------------------------------------------------------||
|-------------------------------------------------------------------||
|-----(PH)-------(PH)-----------------------------(PH)--------------||
|"-----5---"------5---------------------------"----5----------------||
|3---------3------------"------"------"-------3-------"------"------||
|-----------------------0----2-0----2-0----2----------0----2-0----2-||
 .         .            .      .      .       .       .      .

|------------------------------------------------------------------
|------------------------------------------------------------------
|-----(PH)------(PH)-----------------------------(PH)--------------
|"-----5---"-----5---------------------------"----5----------------
|3---------3-----------"------"------"-------3-------"------"------
|----------------------0----2-0----2-0----2----------0----2-0----2-
 .         .           .      .      .       .       .      .

|-------------------||
|-------------------||
|-----(PH)------(PH)||
|"-----5---"-----5--||
|3---------3--------||
|-------------------||
 .         .
RIFF#11. SOLO RIFF...SIMILIAR NOTES/CHORDS ON RIFF#10.FAST PALM MUTE.
|--------------------------------------------------------------||
|--------------------------------------------------------------||
|----------------------(PH)-----------------------(PH)-----(PH)||
|-----------------"------5-------------------"-----5--"-----5--||
|"----------------3---------"----------------3--------3--------||
|0--------------------------0----------------------------------||
 .                .         .                .        .

TRANSITION.
|-----------||
|-----------||
|-----------||
|-----------||
|-----------||
|5--3--4--3-||
 .  .  .  .

REPEAT RIFF#3(4X)
REPEAT RIFF#4(2X)

ENDING RIFF..SAME AS RIFF#5 BASICALLY..(4X)
|------------------------||
|------------------------||
|------------------------||
|------------------------||
|6\-5-5-4-5--6--5--4--5--||
|4\-3-3-2-3--4--3--2--3--||
             .  .  .  .

END.
I'M LUCKY TO COME UP WITH THIS.  PRODUCTION ON THIS CD ISN'T GREAT.
TUNNING COULD SOMETIMES SOUND DIFFERENT THAN IT SHOULD..BUT
GOING OVER IT AND OVER IT..I STILL GET "B" FOR THE TUNING..
ENJOY..:[

  Visit MetalTabs.com for more metal tablature

bottom separator

Contact Us | Privacy Policy | Disclaimer | Legal Notice
Copyright © 2001-2014 MetalTabs.com. All Rights Reserved.