top separator

Home

Forum

What's New

Submit a Tab

FAQ

Links

Contact Us

Link to Us

MetalTabs.com logo

Bands

0-9

A

B

C

D

E

F

G

H

I

J

K

L

M

N

O

P

Q

R

S

T

U

V

W

X

Y

Z

Search

What

Where
 

My Dying Bride - "And My Fury Stands Ready" Guitar Tab

Plain Text Version
More My Dying Bride Tabs

Hits: 4243
Rated: 4.20 out of 5 (5 votes)
Updated: 2005-04-14 14:51:39

 

By:

Pandemonium

sendpm.gif

email.gif

Important note
This tab is available online because we obtained explicit permission from My Dying Bride or their label.


#----------------------------------PLEASE NOTE---------------------------------#
#This file is the author's own work and represents their interpretation of the #
#song. You may only use this file for private study, scholarship, or research. #
#Unless specified otherwise, this is NOT an official tab from the band members.#
#------------------------------------------------------------------------------#

  Visit MetalTabs.com for more metal tablature
  
Band:  My Dying Bride
Album: Songs of Darkness, Words of Light
Song:  And My Fury Stands Ready

Copyright (c)  Peaceville 2004
Version 1.0 - 4/11/05

Transcribed By: Mathew S.
Email:          opeth15@yahoo.com


* = palm mute

Tuning
C# F# B E G# C#

The timing for this song is very easy.
Figure it out, it is slow doom metal tempo throughout.

Intro/Riff 1  x4

|-------------------------------------|
|--------------0----------------------|
|------------3---3---3----------------|
|-3-2---2--2-------2------------------|
|-------2--------------3-2------------|
|-------0-----------------------------|

Riff 2 x4

|-----------------------------------------|
|-----------------------------------------|
|-----------------------------------------|
|--2-2-2---2--4---------4/5--9--8---------|
|--2-2-2---2--4---------4/5--9--8---------|
|--0-0-0---0--2---------2/3--7--6---------|
   * * *
(3 palm muted power chords done only on transition)

Back to Riff 1 x4

          B -2-
          F#-2-
End with: C#-0-

Riff 3 x4 (the bass takes over this riff after 4 times, but you can
still hear it a bit in the background, and parts of it surge up a few
times)

|-------------------------------|
|-------------------------------|
|-------------------------------|
|--6----9---8---5-------5/6-----|
|--7---10---9---6-------6/7-----|
|-------------------------------|


                                   B -2-
                                   F#-2-
Next, there is random strumming of C#-0-

                               G#-0-
                                E-3-
and random picking of the chord B-2-


However, you can also hear the beginnings of the next riff.
All of these things are kind of muddled together, and appear
sporadically, making an impossibly tedious tab. I've given the
first two parts, now here is the next riff that is kind of mixed in:


Riff 4

|-------------------------------------|
|-------------------------------------|
|-------------------------------------|
|-2-2---2-2-2------------3---3-2------|
|-2-2---2-2-2----2-1---1--------------|
|-0-0---0-0-0--0-----0-----0----------|
  *     * *    *     *     *
(First two chords first time only)


Riff 2 x4

Riff 1 x4


END

  Visit MetalTabs.com for more metal tablature

bottom separator

Contact Us | Privacy Policy | Disclaimer | Legal Notice
Copyright © 2001-2014 MetalTabs.com. All Rights Reserved.