top separator

Home

Forum

What's New

Submit a Tab

FAQ

Links

Contact Us

Link to Us

MuSpy.com

MetalTabs.com logo

Bands

0-9

A

B

C

D

E

F

G

H

I

J

K

L

M

N

O

P

Q

R

S

T

U

V

W

X

Y

Z

Search

What

Where
 

Dying Fetus - "Vengeance Unleashed" Guitar Tab

Plain Text Version
More Dying Fetus Tabs

Hits: 5402
Rated: 4.38 out of 5 (8 votes)
Updated: 2005-05-08 08:45:19

 

By:

younguitarist

sendpm.gif

email.gif

Important note
This tab is available online because we obtained explicit permission from Dying Fetus or their label.


#----------------------------------PLEASE NOTE---------------------------------#
#This file is the author's own work and represents their interpretation of the #
#song. You may only use this file for private study, scholarship, or research. #
#Unless specified otherwise, this is NOT an official tab from the band members.#
#------------------------------------------------------------------------------#

  Visit MetalTabs.com for more metal tablature
  
VENGEANCE UNLEASHED
                           As recorded by Dying Fetus
                      (From the 2003 Album STOP AT NOTHING)

Words and Music by Dying Fetus
Arranged by Dying Fetus
Transcribed by Alvaro Ramirez (lazyguitarist@att.net)

Gtr I (Db Gb B E Ab Db) - 'John Gallagher'
Gtr II (Db Gb B E Ab Db) - 'Mike Kimball'
Gtr III (Db Gb B E Ab Db) - 'Solo'

   Intro
    Q=203                      1.
   4/4
    Gtrs I, II
    TP TP TP TP   TP TP TP TP   TP TP TP TP  TP TP TP TP
    Q  Q  Q  Q    Q  Q  Q  Q    Q  Q  Q  Q   Q  Q  Q  Q
||--------------|-------------|------------|---------------||
||o-------------|-------------|------------|--------------o||
||--------------|-------------|------------|---------------||
||--4-----4-----|-------------|-4-----4----|---------------||
||o-------------|-------------|------------|--------------o||
||-----2-----2--|-4--5--1--1--|----2-----2-|-4--5--5--4----||


  2.205
  PM---------------------|    TP TP TP TP   TP TP TP TP
  Q  Q  Q  Q    Q  Q  Q  Q    Q  Q  Q  Q    Q  Q  Q  Q
|-------------|-------------|-------------|-------------|
|-------------|-------------|-------------|-------------|
|-------------|-------------|-------------|-------------|
|-------------|-------------|-4-----4-----|-------------|
|-4--3--4--6--|-7--6--4--3--|-------------|-------------|
|-2--1--2--4--|-5--4--2--1--|----2-----2--|-4--5--1--1--|


  TP TP TP TP   TP TP TP TP   TP TP TP TP   TP TP TP TP
  Q  Q  Q  Q    Q  Q  Q  Q    Q  Q  Q  Q    Q  Q  Q  Q
|-------------|-------------|-------------|-------------|
|-------------|-------------|-------------|-------------|
|-------------|-------------|-------------|-------------|
|-4-----4-----|-------------|-4-----4-----|-------------|
|-------------|-------------|-------------|-------------|
|----2-----2--|-4--5--5--4--|----2-----2--|-4--5--1--1--|


  PM
  Q  H.     W
|---------|------|
|---------|------|
|---------|------|
|---------|------|
|-4-------|------|
|-2-------|------|


 Chorus
  Q=207
  E Q  E E Q  E   Q  Q  Q.   E   E Q  E E Q  E   Q  Q  Q  Q
|---------------|--------------|---------------|---------------|
|---------------|--------------|---------------|---------------|
|---------------|--------------|---------------|---------------|
|---------------|--------------|---------------|---------------|
|-4-4--4-4-4--4-|-6--7--3----3-|-4-4--4-4-4--4-|-6--7--7--7----|
|-2-2--2-2-2--2-|-4--5--1----1-|-2-2--2-2-2--2-|-4--5--5--5----|


                               Q=210
  Gtr I
                                 TP TP TP TP   TP TP TP
  E Q  E E Q  E   Q  Q  Q.   E   Q  Q  Q  Q    Q  Q  Q   Q
|---------------|--------------|-------------|-----------------|
|---------------|--------------|-------------|-----------------|
|---------------|--------------|-------------|-----------------|
|---------------|--------------|-4--2--------|-2---------2-----|
|-4-4--4-4-4--4-|-6--7--3----3-|-------5--4--|----5--4---------|
|-2-2--2-2-2--2-|-4--5--1----1-|-------------|-----------------|
|
| Gtr II
|                                TP TP TP TP   TP TP TP  ~~~
| E Q  E E Q  E   Q  Q  Q.   E   Q  Q  Q  Q    Q  Q  Q   Q
|---------------|--------------|-------------|-----------------|
|---------------|--------------|-------------|-----------------|
|---------------|--------------|-------------|-----------------|
|---------------|--------------|-4--2--------|-2---------------|
|-4-4--4-4-4--4-|-6--7--3----3-|-------5--4--|----5--4---------|
|-2-2--2-2-2--2-|-4--5--1----1-|-------------|----------[3]----|


  Gtrs I, II
  E Q  E E Q  E   Q  Q  Q.   E   E Q  E E Q  E   Q  Q  Q  Q
|---------------|--------------|---------------|---------------|
|---------------|--------------|---------------|---------------|
|---------------|--------------|---------------|---------------|
|---------------|--------------|---------------|---------------|
|-4-4--4-4-4--4-|-6--7--3----3-|-4-4--4-4-4--4-|-6--7--7--7----|
|-2-2--2-2-2--2-|-4--5--1----1-|-2-2--2-2-2--2-|-4--5--5--5----|


  Gtr I
                                 TP TP TP TP   TP TP TP
  E Q  E E Q  E   Q  Q  Q.   E   Q  Q  Q  Q    Q  Q  Q   Q
|---------------|--------------|-------------|-----------------|
|---------------|--------------|-------------|-----------------|
|---------------|--------------|-------------|-----------------|
|---------------|--------------|-4--2--------|-2---------2-----|
|-4-4--4-4-4--4-|-6--7--3----3-|-------5--4--|----5--4---------|
|-2-2--2-2-2--2-|-4--5--1----1-|-------------|-----------------|
|
| Gtr II
|                                TP TP TP TP   TP TP TP  ~~~
| E Q  E E Q  E   Q  Q  Q.   E   Q  Q  Q  Q    Q  Q  Q   Q
|---------------|--------------|-------------|-----------------|
|---------------|--------------|-------------|-----------------|
|---------------|--------------|-------------|-----------------|
|---------------|--------------|-4--2--------|-2---------------|
|-4-4--4-4-4--4-|-6--7--3----3-|-------5--4--|----5--4---------|
|-2-2--2-2-2--2-|-4--5--1----1-|-------------|----------[3]----|


    Q=205
    Gtrs I, II
                            |-3-|
    S S S S S S S S S S S S E E E   S S S S S S S S S S S S S S S S
||--------------------------------|---------------------------------|
||o-------------------------------|---------------------------------|
||--------------------------------|---------------------------------|
||--------------------------------|---------------------------------|
||o-------------------------2-3-5-|---------------------------------|
||--0-0-0-0-0-0-0-0-0-0-0-0-------|-1-1-1-1-1-1-1-1-2-2-2-2-3-3-3-3-|


  1.200
  e e e e e e e e   e e e e e e e e
|-----------------|------------------||
|-----------------|-----------------o||
|-------------5-8-|-4-7--------------||
|---------5-8-----|-----5-8----------||
|-----5-8---------|---------5-8-----o||
|-4-7-------------|-------------5-7--||


  2.
   S  S  S  S  S  S  S  S  S  S  S  S  S  S  S  S
|-12-13-16-13-12-----------------------------------|
|----------------15-14-12-------------------12-13--|
|-------------------------15-14-12-----------------|
|----------------------------------15-14-12--------|
|--------------------------------------------------|
|--------------------------------------------------|


                                               Q
   S  S  S  S  S  S  S  S  S  S  S  S  S  S  E
|----------------------------------------------|
|-16-13-12-------------------------------------|
|----------15-13-12----------------------------|
|-------------------15-13-12-------------------|
|----------------------------15-13-12----------|
|-------------------------------------15-13-12-|


 =205
                          |-3-|
  S S S S S S S S S S S S E E E
|--------------------------------|
|--------------------------------|
|--------------------------------|
|--------------------------------|
|-------------------------2-3-5--|
|-0-0-0-0-0-0-0-0-0-0-0-0--------|


  S S S S S S S S S S S S S S S S   S S  E S S  E S S  E S  S  E
|---------------------------------|--------7-9-10--------9-11-12----|
|---------------------------------|---------------------------------|
|---------------------------------|---------------------------------|
|---------------------------------|-7-9-10--------7-9-10------------|
|---------------------------------|---------------------------------|
|-1-1-1-1-1-1-1-1-2-2-2-2-3-3-3-3-|---------------------------------|


                                                            |-3-|
  S S  E  S  S  E S S  E  S  S  E   S S S S S S S S S S S S E E E
|--------11-13-14--------14-16-17-|-------------------------------|
|---------------------------------|-------------------------------|
|---------------------------------|-------------------------------|
|-7-9-10----------7-9-10----------|-------------------------------|
|---------------------------------|-------------------------2-3-5-|
|---------------------------------|-0-0-0-0-0-0-0-0-0-0-0-0-------|


                                    PM-------|
  S S S S S S S S S S S S S S S S   Q  Q  Q  Q    W
|---------------------------------|-------------|------|
|---------------------------------|-------------|------|
|---------------------------------|-------------|------|
|---------------------------------|-------------|------|
|---------------------------------|-4--3--4--6--|-7----|
|-1-1-1-1-1-1-1-1-2-2-2-2-3-3-3-3-|-2--1--2--4--|-5----|


  Q=207
  TP TP TP TP   TP TP TP TP   TP TP TP TP   TP TP TP TP
  Q  Q  Q  Q    Q  Q  Q  Q    Q  Q  Q  Q    Q  Q  Q  Q
|-------------|-------------|-------------|-------------|
|-------------|-------------|-------------|-------------|
|-------------|-------------|-------------|-------------|
|-4-----4-----|-------------|-4-----4-----|-------------|
|-------------|-------------|-------------|-------------|
|----2-----2--|-4--5--1--1--|----2-----2--|-4--5--5--4--|


                            Q=220
  TP TP TP TP   TP TP TP TP   PM---------------------|
  Q  Q  Q  Q    Q  Q  Q  Q    Q  Q  Q  Q    Q  Q  Q  Q
|-------------|-------------|-------------|-------------|
|-------------|-------------|-------------|-------------|
|-------------|-------------|-------------|-------------|
|-4-----4-----|-------------|-------------|-------------|
|-------------|-------------|-4--3--4--6--|-7--6--4--3--|
|----2-----2--|-4--5--1--1--|-2--1--2--4--|-5--4--2--1--|


 Guitar Solo (Mike Kimball)
  Q=205
  Gtrs I, II
   TP          TP          TP          TP
   Q           Q           Q           Q
|-------------------------------------------------|
|-------------------------------------------------|
|-------------------------------------------------|
|--4-----------------------4----------------------|
|-------------------------------------------------|
|--------------2-----------------------2----------|
|
| Gtr III
|  S  S  S  S  S  S  S  S  S  S  S  S  S  S  S  S
|-15-16-18-16-------17-18-17-------------18-19-21-|
|-------------18-16----------20-19-17-19----------|
|-------------------------------------------------|
|-------------------------------------------------|
|-------------------------------------------------|
|-------------------------------------------------|


   TP          TP          TP          TP
   Q           Q           Q           Q
|-------------------------------------------------|
|-------------------------------------------------|
|-------------------------------------------------|
|-------------------------------------------------|
|-------------------------------------------------|
|--4-----------5-----------1-----------1----------|
|
|  S  S  S  S  S  S  S  S  S  S  S  S  S  S  S  S
|-19-18-------------22-21-18----------------18----|
|-------20-19-21-22----------21-20-19-21-22----21-|
|-------------------------------------------------|
|-------------------------------------------------|
|-------------------------------------------------|
|-------------------------------------------------|


   TP          TP         TP          TP         TP       TP         TP TP
   Q           Q          Q           Q          Q        Q          Q  Q
|---------------------------------------------|-------------------------------|
|---------------------------------------------|-------------------------------|
|---------------------------------------------|-------------------------------|
|--4----------------------4-------------------|-------------------------------|
|---------------------------------------------|-------------------------------|
|--------------2----------------------2-------|--4--------5----------1--1-----|
|
|                 |--3--|             |--3--|    |--3--|  |--3--|
|  S  S  S  S  S  E  E  E    S  S  S  E  E  E    E  E  E  E  E  E..  Q  E.
|---------------------------------------------|-------------------------------|
|-19-17----------15-16------------------------|-------------------------------|
|-------19-18-16-------18---16-------------19-|-------------------------------|
|------------------------------19-18----21----|-21-19-18----------------------|
|------------------------------------19-------|----------19-17----------------|
|---------------------------------------------|----------------19---17--------|


   TP       TP       TP       TP         TP    TP    TP    TP
   Q        Q        Q        Q          Q     Q     Q     Q
|-------------------------------------|-------------------------------------|
|-------------------------------------|-------------------------------------|
|-------------------------------------|-------------------------------------|
|--4-----------------4----------------|-------------------------------------|
|-------------------------------------|-------------------------------------|
|-----------2-----------------2-------|--4-----5-----1-----1----------------|
|
|  |--3--|  |--3--|  |--3--|  |--3--|    |--3--|  |--3--|  |--3--|  |--3--|
|  E  E  E  E  E  E  E  E  E  E  E  E    E  E  E  E  E  E  E  E  E  E  E  E
|-------------------------------------|----------------------------------13-|
|----------------15-------------15-17-|-14----------------14----------14----|
|----------14-16----11-13-14-16-------|----16-15-13-15-16----16-15-13-------|
|-18-19-18----------------------------|-------------------------------------|
|-------------------------------------|-------------------------------------|
|-------------------------------------|-------------------------------------|


  Q=210
   PM--------------------------------------------------------|
   Q        Q        Q        Q          Q        Q     Q     Q
|-------------------------------------|-----------------------------|
|-------------------------------------|-----------------------------|
|-------------------------------------|-----------------------------|
|-------------------------------------|-----------------------------|
|--4--------3--------4--------6-------|--7--------6-----4-----3-----|
|--2--------1--------2--------4-------|--5--------4-----2-----1-----|
|
|  |--3--|  |--3--|  |--3--|  |--3--|
|  E  E  E  E  E  E  E  E  E  E  E  E    S  S  S  S  S  S  E  H
|-------------------17-18-19-18-------|-18-------18-19-21S22-21\----|
|-14-16-17-20-18-19-------------20-21-|----19-22--------------------|
|-------------------------------------|-----------------------------|
|-------------------------------------|-----------------------------|
|-------------------------------------|-----------------------------|
|-------------------------------------|-----------------------------|


 Chorus 2
  Q=203
                                     5/4
  Gtr I
  TP         TP TP TP TP   TP         TP TP TP TP
  W          Q  Q  Q  Q    W          Q  Q  Q  H
|----------|-------------|----------|--------------|
|----------|-------------|----------|--------------|
|----------|-------------|----------|--------------|
|----------|-------------|----------|--------------|
|----------|-------------|----------|--------------|
|-2--------|-4--5--1--1--|-2--------|-4--5--5--5---|


 4/4
  TP         TP TP TP TP   TP TP TP TP   TP TP TP
  W          Q  Q  Q  Q    Q  Q  Q  Q    Q  Q  Q   Q
|----------|-------------|-------------|--------------|
|----------|-------------|-------------|--------------|
|----------|-------------|-------------|--------------|
|----------|-------------|-4--2--------|-2---------2--|
|----------|-------------|-------5--4--|----5--4------|
|-2--------|-4--5--1--1--|-------------|--------------|
|
| Gtr II
|                          TP TP TP TP   TP TP TP  ~~~
| W          W             Q  Q  Q  Q    Q  Q  Q   Q
|----------|-------------|-------------|--------------|
|----------|-------------|-------------|--------------|
|----------|-------------|-------------|----------[4]-|
|----------|-------------|-4--2--------|-2------------|
|----------|-------------|-------5--4--|----5--4------|
|----------|-------------|-------------|--------------|


  Q=185
  Gtrs I, II
  PM------------------------------------------------------------------|
  E E E E E E E E   E E E E E E E E   E E E E E E E E   E E E E E E E E
|-----------------|-----------------|-----------------|-----------------|
|-----------------|-----------------|-----------------|-----------------|
|-----------------|-----------------|-----------------|-----------------|
|-----------------|-----------------|-----------------|-----------------|
|-4-4-4-4-4-4-4-4-|-6-6-7-7-3-3-3-3-|-4-4-4-4-4-4-4-4-|-6-6-7-7-7-7-7-7-|
|-2-2-2-2-2-2-2-2-|-4-4-5-5-1-1-1-1-|-2-2-2-2-2-2-2-2-|-4-4-5-5-5-5-5-5-|


                                    Q=205
  Gtr I
  PM------------------------------------------------------|
  E E E E E E E E   E E E E E E E E   Q  Q  Q  Q    Q  Q  Q   Q
|-----------------|-----------------|-------------|---------------|
|-----------------|-----------------|-------------|---------------|
|-----------------|-----------------|-6--4--2-----|-4--2----------|
|-----------------|-----------------|-4--2--0--6--|-2--0--6-------|
|-4-4-4-4-4-4-4-4-|-6-6-7-7-3-3-3-3-|----------4--|-------4-------|
|-2-2-2-2-2-2-2-2-|-4-4-5-5-1-1-1-1-|-------------|---------------|
|
| Gtr II
| PM------------------------------------------------------|   ~~~
| E E E E E E E E   E E E E E E E E   Q  Q  Q  Q    Q  Q  Q   Q
|-----------------|-----------------|-------------|---------------|
|-----------------|-----------------|-------------|---------------|
|-----------------|-----------------|-6--4--2-----|-4--2----------|
|-----------------|-----------------|-4--2--0--6--|-2--0--6-------|
|-4-4-4-4-4-4-4-4-|-6-6-7-7-3-3-3-3-|----------4--|-------4-------|
|-2-2-2-2-2-2-2-2-|-4-4-5-5-1-1-1-1-|-------------|----------[3]--|


    Gtrs I, II
                            |-3-|
    S S S S S S S S S S S S E E E   S S S S S S S S S S S S S S S S
||--------------------------------|-----------------------------------|
||o-------------------------------|-----------------------------------|
||--------------------------------|-----------------------------------|
||--------------------------------|-----------------------------------|
||o-------------------------2-3-5-|-----------------------------------|
||--0-0-0-0-0-0-0-0-0-0-0-0-------|-1-1-1-1-1-1-1-1-2-2-2-2-3-3-3-3---|


  1.200
  e e e e e e e e   e e e e e e e e
|-----------------|------------------||
|-----------------|-----------------o||
|-------------5-8-|-4-7--------------||
|---------5-8-----|-----5-8----------||
|-----5-8---------|---------5-8-----o||
|-4-7-------------|-------------5-7--||


  2.
   S  S  S  S  S  S  S  S  S  S  S  S  S  S  S  S
|-12-13-16-13-12-------------------------------------|
|----------------15-14-12-------------------12-13----|
|-------------------------15-14-12-------------------|
|----------------------------------15-14-12----------|
|----------------------------------------------------|
|----------------------------------------------------|


                                               Q
   S  S  S  S  S  S  S  S  S  S  S  S  S  S  E
|----------------------------------------------|
|-16-13-12-------------------------------------|
|----------15-13-12----------------------------|
|-------------------15-13-12-------------------|
|----------------------------15-13-12----------|
|-------------------------------------15-13-12-|


 =205
                          |-3-|
  S S S S S S S S S S S S E E E
|---------------------------------|
|---------------------------------|
|---------------------------------|
|---------------------------------|
|-------------------------2-3-5---|
|-0-0-0-0-0-0-0-0-0-0-0-0---------|


  S S S S S S S S S S S S S S S S   S S  E S S  E S S  E S  S  E
|---------------------------------|--------7-9-10--------9-11-12----|
|---------------------------------|---------------------------------|
|---------------------------------|---------------------------------|
|---------------------------------|-7-9-10--------7-9-10------------|
|---------------------------------|---------------------------------|
|-1-1-1-1-1-1-1-1-2-2-2-2-3-3-3-3-|---------------------------------|


                                                            |-3-|
  S S  E  S  S  E S S  E  S  S  E   S S S S S S S S S S S S E E E
|--------11-13-14--------14-16-17-|-------------------------------|
|---------------------------------|-------------------------------|
|---------------------------------|-------------------------------|
|-7-9-10----------7-9-10----------|-------------------------------|
|---------------------------------|-------------------------2-3-5-|
|---------------------------------|-0-0-0-0-0-0-0-0-0-0-0-0-------|


                                    PM-------|
  S S S S S S S S S S S S S S S S   Q  Q  Q  Q    W
|---------------------------------|-------------|------|
|---------------------------------|-------------|------|
|---------------------------------|-------------|------|
|---------------------------------|-------------|------|
|---------------------------------|-4--3--4--6--|-7----|
|-1-1-1-1-1-1-1-1-2-2-2-2-3-3-3-3-|-2--1--2--4--|-5----|


  Q=230
  W          +W           W          +W
|----------|------------|----------|--------|
|----------|------------|----------|--------|
|----------|------------|----------|--------|
|----------|------------|----------|--------|
|-4--------|-(4)--------|-4--------|-(4)----|
|-2--------|-(2)--------|-2--------|-(2)----|


  W          +W           W              E H..
|----------|------------|----------|-------------|
|----------|------------|----------|-------------|
|----------|------------|----------|-------------|
|----------|------------|----------|-------------|
|-4--------|-(4)--------|-4--------|-----4-------|
|-2--------|-(2)--------|-2--------|-----2-------|


   Breakdown
    Q=185
         PM|              PM----|        PM|           PM
                          |--3--|
    Q  Q E E E E    Q  Q  Q  Q  Q   Q  Q E E E E    Q  E E Q  E E    4x
||----------------|---------------|---------------|------------------||
||o---------------|---------------|---------------|-----------------o||
||----------------|---------------|---------------|------------------||
||----------------|---------------|---------------|------------------||
||o-4--4-----3-4--|-4--4--5--3--5-|-4--4-----3-7--|-6----7-6--5S7---o||
||--2--2-0-0-1-2--|-2--2--3--1--3-|-2--2-0-0-1-5--|-4--0-5-4--3S5----||


    Q=160
    PM----------------------------|
    E E E E E E E E   E E E E E E E  E
||------------------|-------------------|
||o-----------------|---------------[3]-|
||------------------|-------------------|
||------------------|-------------------|
||o-4-3-2-3-6-3-2-3-|-4-3-2-3-6-3-2-----|
||--2-1-0-1-4-1-0-1-|-2-1-0-1-4-1-0-----|


                   1.
  PM----------------------------|
  E E E E E E E E   E E E E E E E  E
|-----------------|---------------------||
|-----------------|--------------------o||
|-----------------|---------------[3]---||
|-----------------|---------------------||
|-4-3-2-3-6-3-2-3-|-4-3-2-3-6-3-2------o||
|-2-1-0-1-4-1-0-1-|-2-1-0-1-4-1-0-------||


  2.
  PM------------|
  E E E E E E E E
|--------------------|
|--------------------|
|--------------------|
|--------------------|
|-4-3-2-3-6-3-2-3----|
|-2-1-0-1-4-1-0-1----|


    Q=185
          PM|             PM--|         PM|          PM
                          |-3-|
    Q  Q  E E E E   Q  Q  Q Q Q   Q  Q  E E E E   Q  E E Q  E E
||----------------|-------------|---------------|------------------||
||o---------------|-------------|---------------|-----------------o||
||----------------|-------------|---------------|------------------||
||----------------|-------------|---------------|------------------||
||o-4--4------3-4-|-4--4--5-3-5-|-4--4------3-7-|-6----7-6--5S7---o||
||--2--2--0-0-1-2-|-2--2--3-1-3-|-2--2--0-0-1-5-|-4--0-5-4--3S5----||


    Q=160
    PM----------------------------|
    E E E E E E E E   E E E E E E E  E
||------------------|-------------------|
||o-----------------|---------------[3]-|
||------------------|-------------------|
||------------------|-------------------|
||o-4-3-2-3-6-3-2-3-|-4-3-2-3-6-3-2-----|
||--2-1-0-1-4-1-0-1-|-2-1-0-1-4-1-0-----|


                   1.
  PM----------------------------|
  E E E E E E E E   E E E E E E E  E
|-----------------|---------------------||
|-----------------|--------------------o||
|-----------------|---------------[3]---||
|-----------------|---------------------||
|-4-3-2-3-6-3-2-3-|-4-3-2-3-6-3-2------o||
|-2-1-0-1-4-1-0-1-|-2-1-0-1-4-1-0-------||


  2.                Q=220
                   6/4
  PM------------|
  E E E E E E E E   E  Q.   E E E E E Q.
|-----------------|-------------------------|
|-----------------|-------------------------|
|-----------------|-------------------------|
|-----------------|-------------------------|
|-4-3-2-3-6-3-2-3-|-4-------4-4-6-7-3-------|
|-2-1-0-1-4-1-0-1-|-2-------2-2-4-5-1-------|


    Q=218
   4/4
    Gtrs I, II
    TP TP TP TP  TP TP TP TP   TP TP TP TP   TP TP TP TP
    Q  Q  Q  Q   Q  Q  Q  Q    Q  Q  Q  Q    Q  Q  Q  Q
||-------------|-------------|-------------|------------|
||o------------|-------------|-------------|------------|
||-----6--7--6-|----6--4-----|----4--------|------------|
||--4----------|-7--------7--|-6-----7--6--|-7--6--4--3-|
||o------------|-------------|-------------|------------|
||-------------|-------------|-------------|------------|


  TP TP TP TP   TP TP TP TP   TP TP TP TP   TP TP TP TP
  Q  Q  Q  Q    Q  Q  Q  Q    Q  Q  Q  Q    Q  Q  Q  Q
|-------------|-------------|-------------|--------------||
|-------------|-------------|-------------|-------------o||
|----6--7--6--|----6--4-----|-4--4--6--7--|-6--6---------||
|-4-----------|-7--------7--|-------------|-------7--6---||
|-------------|-------------|-------------|-------------o||
|-------------|-------------|-------------|--------------||


    Q=210
    PM----------------------------------------------|
    S S E S S E S S E S S E   S S E S S E S S E S S E
||--------------------------|--------------------------|
||o-------------------------|--------------------------|
||--------------------------|--------------------------|
||--------------------------|--------------------------|
||o-------4-4-4-5-5-5-4-4-4-|-------4-4-4-2-2-2--------|
||--2-2-2-------------------|-5-5-5-------------5-5-5--|


  S S E S S E S S E S S E   S S E S S E S S E S S E
|-------------------------|-------------------------|
|-------------------------|-------------------------|
|-------------------------|-------------------------|
|-------------------------|-------------------------|
|-------2-2-2-------------|-------------------------|
|-4-4-4-------5-5-5-4-4-4-|-5-5-5-4-4-4-2-2-2-0-0-0-|


  PM----------------------------------------------|
  S S E S S E S S E S S E   S S E S S E S S E S S E
|-------------------------|-------------------------|
|-------------------------|-------------------------|
|-------------------------|-------------------------|
|-------------------------|-------------------------|
|-------4-4-4-5-5-5-4-4-4-|-------4-4-4-2-2-2-------|
|-2-2-2-------------------|-5-5-5-------------5-5-5-|


  TP   TP TP   TP   TP TP
  H    Q  Q    H    Q  Q
|------------|---------------||
|------------|--------------o||
|------------|---------------||
|------------|---------------||
|-2----4--5--|-4------------o||
|------------|------5--4-----||


    TP TP TP TP   TP TP TP TP   TP TP TP TP   TP TP TP TP
    Q  Q  Q  Q    Q  Q  Q  Q    Q  Q  Q  Q    Q  Q  Q  Q
||--------------|-------------|-------------|--------------|
||o-------------|-------------|-------------|--------------|
||-----6--7--6--|----6--4-----|----4--------|--------------|
||--4-----------|-7--------7--|-6-----7--6--|-7--6--4--3---|
||o-------------|-------------|-------------|--------------|
||--------------|-------------|-------------|--------------|


                             1.
  TP TP TP TP   TP TP TP TP   TP TP TP TP   TP TP TP TP
  Q  Q  Q  Q    Q  Q  Q  Q    Q  Q  Q  Q    Q  Q  Q  Q
|-------------|-------------|-------------|--------------||
|-------------|-------------|-------------|-------------o||
|----6--7--6--|----6--4-----|-4--4--6--7--|-6--6---------||
|-4-----------|-7--------7--|-------------|-------7--6---||
|-------------|-------------|-------------|-------------o||
|-------------|-------------|-------------|--------------||


  2.
   ~~~~~~~~~~~~~~~~~~~~~~~~~~~~~~~~~
   H      Q    Q      H     Q    Q
|------------------|-------------------|
|------------------|-------------------|
|-[6]--------------|-[3]---------------|
|--------[4]--[3]--|-------[3]--[3]----|
|------------------|-------------------|
|------------------|-------------------|


    Q=205                 1.,2.,3.
    TP
    W          H    H      E E E E E E E E   E E E E E E E E   4x
||-----------|-----------|-----------------|-------------------||
||o----------|-----------|-----------------|------------------o||
||-----------|-----------|-----------------|-------------------||
||-----------|-6----7----|-----------------|-------------------||
||o----------|-----------|-4-3-2-3-6-3-2-3-|-4-3-2-3-6-3-2-3--o||
||--2--------|-4----5----|-2-1-0-1-4-1-0-1-|-2-1-0-1-4-1-0-1---||


    4.195
   3/4
    PM-------------------------------------
    S S E S S E S S E   S S E S S E S S E
||--------------------|-------------------|
||o-------------------|-------------------|
||--------------------|-------------------|
||--------------------|-------------------|
||o-------------------|-------------------|
||--0-0-0-0-0-0-0-0-0-|-1-1-1-0-0-0-0-0-0-|


 -------------------------------------|
  S S E S S E S S E   S S E S S E S S E
|-------------------|-------------------|
|-------------------|-------------------|
|-------------------|-------------------|
|-------------------|-------------------|
|-------------------|-------------------|
|-1-1-1-4-4-4-1-1-1-|-2-2-2-1-1-1-2-2-2-|


  S S E S S E S S E   S S E S S E S S E
|-------------------|-------------------|
|-------------------|-------------------|
|-------------------|-------------------|
|-------------------|-------------------|
|-------------------|-------------------|
|-0-0-0-0-0-0-0-0-0-|-1-1-1-0-0-0-0-0-0-|


 1.
   T      T      T        T      T      T
   |-3-|  |-3-|  |-3-|    |-3-|  |-3-|  |-3-|
   E E E  E E E  E E E    E E E  E E E  E E E  3x
|----------------------|-----------------------||
|----------------------|----------------------o||
|-11p7p4---------------|-----------------------||
|--------11p7p4--------|-11p7p4----------------||
|---------------11p7p4-|--------11p7p4--------o||
|----------------------|---------------11p7p4--||


  2.
  Gtr I
   T      T      T        T      T      T
   |-3-|  |-3-|  |-3-|    |-3-|  |-3-|  |-3-|
   E E E  E E E  E E E    E E E  E E E  E E E
|----------------------|----------------------|
|----------------------|----------------------|
|-11p7p4---------------|----------------------|
|--------11p7p4--------|-11p7p4---------------|
|---------------11p7p4-|--------11p7p4--------|
|----------------------|---------------11p7p4-|
|
| Gtr II
|  T      T      T        T      T      T
|  |-3-|  |-3-|  |-3-|    |-3-|  |-3-|  |-3-|
|  E E E  E E E  E E E    E E E  E E E  E E E
|----------------------|----------------------|
|----------------------|----------------------|
|----------------------|----------------------|
|-12p9p5---------------|----------------------|
|--------12p9p5--------|-12p9p5---------------|
|---------------12p9p5-|--------12p9p5-11p7p4-|


    PM----------------------------------|
    S S E S S E S S E   S S E S S E S S E
||--------------------|-------------------|
||o-------------------|-------------------|
||--------------------|-------------------|
||--------------------|-------------------|
||o-------------------|-------------------|
||--0-0-0-0-0-0-0-0-0-|-1-1-1-0-0-0-0-0-0-|
|
|   PM----------------------------------|
|   S S E S S E S S E   S S E S S E S S E
||--------------------|-------------------|
||o-------------------|-------------------|
||--------------------|-------------------|
||--------------------|-------------------|
||o-------------------|-------------------|
||--0-0-0-0-0-0-0-0-0-|-1-1-1-0-0-0-0-0-0-|


  Gtrs I, II
  PM-------------------------------------
  S S E S S E S S E   S S E S S E S S E
|-------------------|-------------------|
|-------------------|-------------------|
|-------------------|-------------------|
|-------------------|-------------------|
|-------------------|-------------------|
|-1-1-1-4-4-4-1-1-1-|-2-2-2-1-1-1-2-2-2-|


 -------------------------------------|
  S S E S S E S S E   S S E S S E S S E
|-------------------|-------------------|
|-------------------|-------------------|
|-------------------|-------------------|
|-------------------|-------------------|
|-------------------|-------------------|
|-0-0-0-0-0-0-0-0-0-|-1-1-1-0-0-0-0-0-0-|


  1.
  Gtr I
   T      T      T        T      T      T
   |-3-|  |-3-|  |-3-|    |-3-|  |-3-|  |-3-|
   E E E  E E E  E E E    E E E  E E E  E E E
|----------------------|-----------------------||
|----------------------|----------------------o||
|-11p7p4---------------|-----------------------||
|--------11p7p4--------|-11p7p4----------------||
|---------------11p7p4-|--------11p7p4--------o||
|----------------------|---------------11p7p4--||
|
| Gtr II
|  T      T      T        T      T      T
|  |-3-|  |-3-|  |-3-|    |-3-|  |-3-|  |-3-|
|  E E E  E E E  E E E    E E E  E E E  E E E
|----------------------|-----------------------||
|----------------------|----------------------o||
|-11p7p4---------------|-----------------------||
|--------11p7p4--------|-11p7p4----------------||
|---------------11p7p4-|--------11p7p4--------o||
|----------------------|---------------11p7p4--||


  2.
    T      T      T        T      T      T
    |-3-|  |-3-|  |-3-|    |-3-|  |-3-|  |-3-|
    E E E  E E E  E E E    E E E  E E E  E E E
|-----------------------|-----------------------|
|-----------------------|-----------------------|
|--11p7p4---------------|-----------------------|
|---------11p7p4--------|-11p7p4----------------|
|----------------11p7p4-|--------11p7p4---------|
|-----------------------|---------------11p7p4--|
|
|   |-3-|  |-3-|  |-3-|    |-3-|  |-3-|  |-3-|
|   E E E  E E E  E E E    E E E  E E E  E E E
|-----------------------|-----------------------|
|--11-7-4---------------|-----------------------|
|---------11-7-4--------|-11-7-4----------------|
|----------------11-7-4-|--------11-7-4---------|
|-----------------------|---------------11-7-4--|
|-----------------------|-----------------------|


    Gtrs I, II
    PM-------------------------------------
    S S E S S E S S E   S S E S S E S S E
||--------------------|-------------------|
||o-------------------|-------------------|
||--------------------|-------------------|
||--------------------|-------------------|
||o-------------------|-------------------|
||--0-0-0-0-0-0-0-0-0-|-1-1-1-0-0-0-0-0-0-|


 -------------------------------------|
  S S E S S E S S E   S S E S S E S S E
|-------------------|--------------------|
|-------------------|--------------------|
|-------------------|--------------------|
|-------------------|--------------------|
|-------------------|--------------------|
|-1-1-1-4-4-4-1-1-1-|-2-2-2-1-1-1-2-2-2--|


  Gtr I
  PM----------------------------------|
  S S E S S E S S E   S S E S S E S S E
|-------------------|-------------------|
|-------------------|-------------------|
|-------------------|-------------------|
|-------------------|-------------------|
|-------------------|-------------------|
|-0-0-0-0-0-0-0-0-0-|-1-1-1-0-0-0-0-0-0-|
|
| Gtr II
| PM----------------------------------|
| S S E S S E S S E   S S E S S E S S E
|-------------------|-------------------|
|-------------------|-------------------|
|-------------------|-------------------|
|-------------------|-------------------|
|-------------------|-------------------|
|-0-0-0-0-0-0-0-0-0-|-1-1-1-0-0-0-0-0-0-|


 1.
   T      T      T        T      T      T
   |-3-|  |-3-|  |-3-|    |-3-|  |-3-|  |-3-|
   E E E  E E E  E E E    E E E  E E E  E E E
|----------------------|-----------------------||
|----------------------|----------------------o||
|-11p7p4---------------|-----------------------||
|--------11p7p4--------|-11p7p4----------------||
|---------------11p7p4-|--------11p7p4--------o||
|----------------------|---------------11p7p4--||
|
|  T      T      T        T      T      T
|  |-3-|  |-3-|  |-3-|    |-3-|  |-3-|  |-3-|
|  E E E  E E E  E E E    E E E  E E E  E E E
|----------------------|-----------------------||
|----------------------|----------------------o||
|-11p7p4---------------|-----------------------||
|--------11p7p4--------|-11p7p4----------------||
|---------------11p7p4-|--------11p7p4--------o||
|----------------------|---------------11p7p4--||


  2.
   T      T      T        T      T      T
   |-3-|  |-3-|  |-3-|    |-3-|  |-3-|  |-3-|
   E E E  E E E  E E E    E E E  E E E  E E E
|----------------------|----------------------|
|----------------------|----------------------|
|-11p7p4---------------|----------------------|
|--------11p7p4--------|-11p7p4---------------|
|---------------11p7p4-|--------11p7p4--------|
|----------------------|---------------11p7p4-|
|
|  T      T      T        T      T      T
|  |-3-|  |-3-|  |-3-|    |-3-|  |-3-|  |-3-|
|  E E E  E E E  E E E    E E E  E E E  E E E
|----------------------|----------------------|
|----------------------|----------------------|
|----------------------|----------------------|
|-12p9p5---------------|----------------------|
|--------12p9p5--------|-12p9p5---------------|
|---------------12p9p5-|--------12p9p5-11p7p4-|


  PM----------------------------------|
  S S E S S E S S E   S S E S S E S S E
|-------------------|-------------------|
|-------------------|-------------------|
|-------------------|-------------------|
|-------------------|-------------------|
|-------------------|-------------------|
|-0-0-0-0-0-0-0-0-0-|-1-1-1-0-0-0-0-0-0-|
|
| PM----------------------------------|
| S S E S S E S S E   S S E S S E S S E
|-------------------|-------------------|
|-------------------|-------------------|
|-------------------|-------------------|
|-------------------|-------------------|
|-------------------|-------------------|
|-0-0-0-0-0-0-0-0-0-|-1-1-1-0-0-0-0-0-0-|


  Gtrs I, II
  PM-------------------------------------
  S S E S S E S S E   S S E S S E S S E
|-------------------|-------------------|
|-------------------|-------------------|
|-------------------|-------------------|
|-------------------|-------------------|
|-------------------|-------------------|
|-1-1-1-4-4-4-1-1-1-|-2-2-2-1-1-1-2-2-2-|


 -------------------------------------|
  S S E S S E S S E   S S E S S E S S E
|-------------------|-------------------|
|-------------------|-------------------|
|-------------------|-------------------|
|-------------------|-------------------|
|-------------------|-------------------|
|-0-0-0-0-0-0-0-0-0-|-1-1-1-0-0-0-0-0-0-|


   T      T      T        T      T      T
   |-3-|  |-3-|  |-3-|    |-3-|  |-3-|  |-3-|
   E E E  E E E  E E E    E E E  E E E  E E E
|----------------------|----------------------|
|----------------------|----------------------|
|-11p7p4---------------|----------------------|
|--------11p7p4--------|-11p7p4---------------|
|---------------11p7p4-|--------11p7p4--------|
|----------------------|---------------11p7p4-|


  PM----------------------------------|
  S S E S S E S S E   S S E S S E S S E
|-------------------|-------------------|
|-------------------|-------------------|
|-------------------|-------------------|
|-------------------|-------------------|
|-------------------|-------------------|
|-0-0-0-0-0-0-0-0-0-|-1-1-1-0-0-0-0-0-0-|


  PM-------------------------------------
  S S E S S E S S E   S S E S S E S S E
|-------------------|-------------------|
|-------------------|-------------------|
|-------------------|-------------------|
|-------------------|-------------------|
|-------------------|-------------------|
|-1-1-1-4-4-4-1-1-1-|-2-2-2-1-1-1-2-2-2-|


 -------------------------------------|
  S S E S S E S S E   S S E S S E S S E
|-------------------|-------------------*|
|-------------------|-------------------*|
|-------------------|-------------------*|
|-------------------|-------------------*|
|-------------------|-------------------*|
|-0-0-0-0-0-0-0-0-0-|-1-1-1-0-0-0-0-0-0-*|



Tablature Legend
----------------
 h   - hammer-on
 p   - pull-off
 b   - bend
 pb  - pre-bend
 r   - bend release (if no number after the r, then release immediately)
 /\  - slide into or out of (from/to "nowhere")
 s   - legato slide
 S   - shift slide
<n>  - natural harmonic
[n]  - artificial harmonic
n(n) - tapped harmonic
 ~   - vibrato
 tr  - trill
 T   - tap
 TP  - trem. picking
 PM  - palm muting
\n/  - tremolo bar dip; n = amount to dip
 \n  - tremolo bar down
 n/  - tremolo bar up
/n\  - tremolo bar inverted dip
 =   - hold bend; also acts as connecting device for hammers/pulls
 <>  - volume swell (louder/softer)
 x   - on rhythm slash represents muted slash
 o   - on rhythm slash represents single note slash

Misc Legend
-----------
 |  - bar
||  - double bar
||o - repeat start
o|| - repeat end
*|  - double bar (ending)
 :  - bar (freetime)
 $  - Segno
 &  - Coda
Tempo markers - <E/E./Q/Q./H/H.> = BPM(8/16=s8/s16),
where s8 = swing 8ths, s16 = swing 16ths

  Visit MetalTabs.com for more metal tablature

bottom separator

Contact Us | Privacy Policy | Disclaimer | Legal Notice
Copyright © 2001-2014 MetalTabs.com. All Rights Reserved.