top separator

Home

Forum

What's New

Submit a Tab

FAQ

Links

Contact Us

Link to Us

MuSpy.com

MetalTabs.com logo

Bands

0-9

A

B

C

D

E

F

G

H

I

J

K

L

M

N

O

P

Q

R

S

T

U

V

W

X

Y

Z

Search

What

Where
 

Mourning Beloveth - "Anger's Steaming Arrows" Bass Tab

Plain Text Version
More Mourning Beloveth Tabs

Hits: 2695
Rated: 5.00 out of 5 (4 votes)
Updated: 2006-11-07 06:23:19

 

By:

Paddy

sendpm.gif

email.gif

Important note
This tab is available online because we obtained explicit permission from Mourning Beloveth or their label.


#----------------------------------PLEASE NOTE---------------------------------#
#This file is the author's own work and represents their interpretation of the #
#song. You may only use this file for private study, scholarship, or research. #
#Unless specified otherwise, this is NOT an official tab from the band members.#
#------------------------------------------------------------------------------#

  Visit MetalTabs.com for more metal tablature
  
================================================================================
                       M O U R N I N G   B E L O V E T H

                                       -

                  A N G E R 'S   S T E A M I N G   A R R O W S
================================================================================


                                THE SULLEN SULCUS
                           (c) Sentinel Records - 2002
                        http://www.mourningbeloveth.com/


                              Tune Down 1 & 1/2 Steps
                                    C# F# B E

                                  Tempo = 60 BPM
                               Time Signature = 4/4



                          -----------------------------
                                 Transcribed by

                                 PADDY MCMULLAN
                           stinkypoohpants@yahoo.co.uk

                                   Version 1.1
                      (Corrections Outlined at Bottom of Tab)
                             -----------------------

                             Tablature Symbols Used:


 (/)       -  Legato Slide (Blank space indicates length of slide)
 \         -  Slide Down to/Down From (Blank space indicates length of slide)
 /         -  Slide Up To/Up From (Blank space indicates length of slide)
 ( )       -  Ghost Note/Tied Note/Implied Note
 |__3__|   -  Triplet Notes
 REST      -  Rest, and hold rest for duration of blank space



================================================================================
Riff 1: (Play 3 times)
================================================================================


                |__3__|
||--R--------------------|-------------------|----------------------|
||--E          ----------|-------------------|----------------------|
||--S          -2--3--2--|-------------------|--2----2----5----2----|
||--T--------------------|--0----------------|----------------------|

                                       |__3__|
|--------------------|--------------------------|-------------------|
|--------------------|--5----2------------------|-------------------|
|--3--------0--------|------------3----2--3--2--|-------------------|
|--------------------|--------------------------|--0----------------|


|----------------------|-------------------|----------------------|
|-------3----2---------|-------------------|----------------------|
|--5--------------3----|--0----------------|--0----0----0----2----|
|----------------------|-------------------|----------------------|


|---------------------|----------------------|--------------------|
|---------------------|----------------------|--------------------|
|---------------------|--2----2----5----2----|--3--------0--------|
|--4------5--7--------|----------------------|--------------------|


|----------------------|---------------------|----------------------|
|----------------------|---------------------|----------------------|
|--0----0----0----2----|---------------------|----------------------|
|----------------------|--4------2--0--------|--4----7----5----4----|


|-------------------| |
|-------------------|*|
|-------------------|*|
|--5----------------| |


On the repeats, replace bar 1 with the supplement:


        ==============
        | Supplement |
        ==============

                           |__3__|
        ||--------------------------|
        ||--5----2------------------|
        ||------------3----2--3--2--|
        ||--------------------------|



On the last repeat, leave out the last bar.



================================================================================
Riff 2: (Play 2 times) Note that only the last bar of the riff is in 6/4 time
================================================================================


         |__3__|       |__3__|    |__3__|       |____3___|
||------------------------------|----------------------------------|
||--2----2--4--5----------------|----------------------------------|
||----------------3----3--5--3--|--2------------5--5-5-5-5-5----5--|
||------------------------------|-------3--0-----------------------|

        |__3__|       |__3__|
|------------------------------|
|--2----2--4--5----------------|
|----------------3----3--5--3--|
|------------------------------|


     |__3__|      |____3___| |______3_____|
| |---------------------------------R ---------------| |
|6|---------------------------------E ---------------|*|
|/|--2------------5--5-5-5-5-5----5-S -5--5--5----5--|*|
|4|-------3--0----------------------T ---------------| |



================================================================================
Riff 3: (Play 5 times)
================================================================================


         |__3__|
||-----------------------------|----------------------------|
||-----------------------------|----------------------------|
||--0----0--2--3---------------|----------------------------|
||----------------3----3----3--|--1----1----1--1----1----1--|

        |__3__|                       |_______3______|
|-----------------------------|---------------------------------| |
|-----------------------------|---------------------------------|*|
|--0----0--2--3---------------|---------------------------------|*|
|----------------3----3----3--|--1----1----1--1--1-1-1--1----3--| |



================================================================================
Riff 4: (Play twice) [Tempo = 50 BPM]
================================================================================


                 |_______3______|         |_______3_____| |___3___|
||--------------------------------|---------------------------------|
||--------------------------------|---------------------------------|
||--0----0--0----2----2--2--0-----|---------------0--2--3--5--2--3--|
||-----------------------------3--|--3----3----3--------------------|

               |______3_______|          |______3______|  |__3__|
|--------------------------------|---------------------------------| |
|--------------------------------|---------------------------------|*|
|--0----0--0----2----2--2--0-----|---------------0--2--3--0--2--3--|*|
|-----------------------------3--|--3----3----3--------------------| |



================================================================================
Riff 5: (Play 6 times)
================================================================================


    |______3_____| |___3__|  |__3____|   |______3______|  |__3__|
||-------------------------------------|--------------------------------| |
||-------------------------------------|--------------------------------|*|
||--0----0--0----7--7--5--5--5--2------|------------------5---5-5--0----|*|
||---------------------------------3-2-|--0----0--0----0----------------| |



================================================================================
Riff 6: (Play 4 times) [Tempo = 65 BPM]
================================================================================


||-------------------------|------------------------| |
||-----5--(5/6)-------5----|------------------------|*|
||--3----------------------|--3--------3--2---------|*|
||-------------------------|-----3--4----------4----| |



================================================================================
Play riff 2 twice [Tempo = 60 BPM]
================================================================================


================================================================================
Play riff 3 9 times, ending on the following:
================================================================================


||-------------------||
||-------------------||
||--0----------------||
||-------------------||


Allow note to ring out.



================================================================================
End
================================================================================


Tab summary:        Riff 1 x 3
                    Riff 2 x 2
                    Riff 3 x 5
                    Riff 4 x 2
                    Riff 5 x 6
                    Riff 6 x 4
                    Riff 2 x 2
                    Riff 3 x 9

                    END


-----------------------
Corrections (29/08/06):
-----------------------

* Corrected Riff 2

  Visit MetalTabs.com for more metal tablature

bottom separator

Contact Us | Privacy Policy | Disclaimer | Legal Notice
Copyright © 2001-2014 MetalTabs.com. All Rights Reserved.