top separator

Home

Forum

What's New

Submit a Tab

FAQ

Links

Contact Us

Link to Us

MuSpy.com

MetalTabs.com logo

Bands

0-9

A

B

C

D

E

F

G

H

I

J

K

L

M

N

O

P

Q

R

S

T

U

V

W

X

Y

Z

Search

What

Where
 

Mourning Beloveth - "Anger's Steaming Arrows" Guitar Tab

Plain Text Version
More Mourning Beloveth Tabs

Hits: 3273
Rated: 5.00 out of 5 (16 votes)
Updated: 2008-10-28 06:20:40

 

By:

Paddy

sendpm.gif

email.gif

Important note
This tab is available online because we obtained explicit permission from Mourning Beloveth or their label.


#----------------------------------PLEASE NOTE---------------------------------#
#This file is the author's own work and represents their interpretation of the #
#song. You may only use this file for private study, scholarship, or research. #
#Unless specified otherwise, this is NOT an official tab from the band members.#
#------------------------------------------------------------------------------#

  Visit MetalTabs.com for more metal tablature
  
================================================================================
                       M O U R N I N G   B E L O V E T H

                                       -

                  A N G E R 'S   S T E A M I N G   A R R O W S
================================================================================


                                THE SULLEN SULCUS
                           (c) Sentinel Records - 2002
                        http://www.mourningbeloveth.com/


                              Tune Down 1 & 1/2 Steps
                                  C# F# B E G# C#

                                  Tempo = 60 BPM
                               Time Signature = 4/4



                          -----------------------------
                                 Transcribed by

                                 PADDY MCMULLAN
                           stinkypoohpants@yahoo.co.uk

                                   Version 1.5
                                21st October 2008
                      (Corrections Outlined at Bottom of Tab)
                             -----------------------

                             Tablature Symbols Used:


 P.M...    -  Palm Mute
 p         -  Pull-Off
 h         -  Hammer-On
 (/)       -  Legato Slide (Blank space indicates length of slide)
 \         -  Slide Down to/Down From (Blank space indicates length of slide)
 /         -  Slide Up To/Up From (Blank space indicates length of slide)
 ( )       -  Ghost Note/Tied Note/Implied Note
 |__3__|   -  Triplet Notes
 x         -  Muted Note/Muffled Note/Dead Note
 Bar x     -  The bar numbers for the current riff (not the overall song)
 REST      -  Rest, and hold rest for duration of blank space
 4t5       -  Trill notes, and continue trill for duration of blank space
 S.H       -  Semi Harmonic, indicated above tab. * symbol indicates note



================================================================================
Riff 1a: Guitar 1 with heavy distortion (Play 3 times)
================================================================================


  1                 |_____3______| 2
||--------------------------------|-----------------------|
||--8-----------------------------|-----------------------|
||-------9------------------------|-----------------------|
||------------10----9--10--9h10p9-|-----------9--9--------|
||--------------------------------|--7--------------------|
||--------------------------------|-----------------------|

 3                       4
|-----------------------|-------------------------|
|-----------------------|-------------------------|
|-----------------------|-------------------------|
|--9----9----12----9----|--10-------(10)\7--------|
|-----------------------|-------------------------|
|-----------------------|-------------------------|


 5                 |_____3______| 6
|--------------------------------|-----------------------|
|--8-----------------------------|-----------------------|
|-------9------------------------|-----------------------|
|------------10----9--10--9h10p9-|-----------9--9--------|
|--------------------------------|--7--------------------|
|--------------------------------|-----------------------|

 7                         8                   9
|-------------------------|-------------------|----------------------|
|-------------------------|-------------------|----------------------|
|--------10----9----------|-------------------|----------------------|
|--12---------------10----|--7----------------|--7----7----7----9----|
|-------------------------|-------------------|----------------------|
|-------------------------|-------------------|----------------------|

 10                    11                      12
|---------------------|-----------------------|-------------------------|
|---------------------|-----------------------|-------------------------|
|---------------------|-----------------------|-------------------------|
|--6------7--9--------|--9----9----12----9----|--10-------(10)\7--------|
|---------------------|-----------------------|-------------------------|
|---------------------|-----------------------|-------------------------|

 13                     14                    15
|----------------------|---------------------|----------------------|
|----------------------|---------------------|----------------------|
|----------------------|---------------------|----------------------|
|--7----7----7----9----|--6------------------|--6----9----7----6----|
|----------------------|---------9--7--------|----------------------|
|----------------------|---------------------|----------------------|


 16                |__3___|
|----------------------------| |
|----------------------------| |
|----------------------------|*|
|--7------9--10----9--10--9--|*|
|----------------------------| |
|----------------------------| |



On the last repeat, leave out the last bar and go straight into riff 2.



================================================================================
Riff 1b: Guitar 2 with heavy distortion (Play 3 times)
================================================================================


  1             |__3___|  2                   3
||-----------------------|-------------------|----------------------|
||--R-         ----------|-------------------|----------------------|
||--E-         ----------|-------------------|----------------------|
||--S-         -4--5--4--|--2----------------|----------------------|
||--T-         -2--3--2--|--2----------------|--2----2----5----2----|
||-----------------------|--0----------------|----------------------|
                P.M....

 4                    5                |__3__|   6
|--------------------|--------------------------|-------------------|
|--------------------|--------------------------|-------------------|
|-----------2--------|--------------------------|-------------------|
|-----------2--------|--5----2---------4--5--4--|--2----------------|
|--3--------0--------|------------3----2--3--2--|--2----------------|
|--------------------|--------------------------|--0----------------|
                                       .......
 7                      8                   9
|----------------------|-------------------|----------------------|
|----------------------|-------------------|----------------------|
|----------------------|--2----------------|--2----2----2----4----|
|-------3----2---------|--2----------------|--2----2----2----4----|
|--5--------------3----|--0----------------|--0----0----0----2----|
|----------------------|-------------------|----------------------|

 10                    11                     12
|---------------------|----------------------|--------------------|
|---------------------|----------------------|--------------------|
|---------------------|----------------------|-----------2--------|
|--6------7--9--------|----------------------|-----------2--------|
|--6------7--9--------|--2----2----5----2----|--3--------0--------|
|--4------5--7--------|----------------------|--------------------|

 13                     14                    15
|----------------------|---------------------|----------------------|
|----------------------|---------------------|----------------------|
|--2----2----2----4----|---------------------|----------------------|
|--2----2----2----4----|--6---------2--------|----------------------|
|--0----0----0----2----|--6------4--2--------|----------------------|
|----------------------|--4------2--0--------|--4----7----5----4----|
                                ...
 16
|-------------------| |
|-------------------| |
|-------------------|*|
|--7----------------|*|
|--7----------------| |
|--5----------------| |



After the first repeat replace the first bar with the supplement:


        ==============
        | Supplement |
        ==============

                           |__3__|
        ||--------------------------|
        ||--------------------------|
        ||--------------------------|
        ||--5----2---------4--5--4--|
        ||------------3----2--3--2--|
        ||--------------------------|
                           .......


As with riff 1a, leave out the last bar on the last repeat and go straight into
riff 2.



================================================================================
Riff 2a: Guitar 1 (Play Twice)
================================================================================


         |__3___|       |_____3____|   |__3__|       |____3___| |___3__|
||----------------------------------|------------------------------------|
||----------------------------------|------------------------------------|
||----------------------------------|------------------------------------|
||--2----2--4--5--------------------|----------2----4------4---4h5-------|
||-----------------3----3--5--3h5p3-|--2-------2----5--5-5-5-5-5(5)---5--|
||----------------------------------|-------3--0-------------------------|
                                                       ...   .

        |__3___|        |_____3____|
||----------------------------------|
||----------------------------------|
||----------------------------------|
||--2----2--4--5--------------------|
||-----------------3----3--5--3h5p3-|
||----------------------------------|


    |__3__|       |____3___| |___3__|  |__3__|  |___3___|
| |-------------------------------------------------------| |
| |------------------------------------R -----------------| |
|6|------------------------------------E -----------------|*|
|/|----------2----4------4---4h5----4--S -4--4--4h5----4--|*|
|4|--2-------2----5--5-5-5-5-5(5)---5--T -5--5--5(5)---5--| |
| |-------3--0--------------------------------------------| |
                     ...   .              ....



================================================================================
Riff 2b: Guitar 2 (Play Twice)
================================================================================


         |__3___|       |_____3____|   |__3__|       |____3___| |___3__|
||----------------------------------|------------------------------------|
||----------------------------------|------------------------------------|
||----------------------------------|------------------------------------|
||--2----2--4--5--------------------|----------2----4------4---4h5-------|
||-----------------3----3--5--3h5p3-|--2-------2----5--5-5-5-5-5(5)---5--|
||----------------------------------|-------3--0-------------------------|
                                                         ...   .

|-------------------------|
|-------------------------|
|-------2--4--5-----------|
|--2-------------5--------|
|-------------------------|
|-------------------------|


    |__3__|       |____3___| |___3__|  |__3__| |____3___|
| |-------------------------------------------------------| |
| |------------------------------------R -----------------| |
|6|------------------------------------E -----------------|*|
|/|--4----2--2----4------4---4h5----4--S -4--4--4h5----4--|*|
|4|---------------5--5-5-5-5-5(5)---5--T -5--5--5(5)---5--| |
| |-------------------------------------------------------| |
                     ...   .              ....



================================================================================
Riff 3a: Guitar 1 (Play once through)
================================================================================


  1                              2
         |__3__|       |__3__|     |____3____| |_______3_____|  |___3___|
||------------------------------|-----------------------------------------|
||------------------------------|-----------------------------------------|
||--2---------------------------|-----------------------------------------|
||--2-------------5----5--3--2--|--3---5p(3\2)-3p2---------------5--3--2--|
||--0----0--2--3----------------|------------------3------3-2-3-----------|
||------------------------------|-----------------------------------------|
                                                          ...
 3                              4
        |__3__|       |__3__|          |__3___|     |___3___|
|------------------------------|------------------------------|
|------------------------------|------------------------------|
|--2---------------------------|------------------------------|
|--2-------------5----5--3--2--|--3----5----3-2-3----5--3--2--|
|--0----0--2--3----------------|------------------------------|
|------------------------------|------------------------------|

 5                              6
        |__3__|       |__3__|     |____3____| |_______3______|  |___3__|
|------------------------------|-----------------------------------------|
|------------------------------|-----------------------------------------|
|--2---------------------------|-----------------------------------------|
|--2-------------5----5--3--2--|--3---5p(3\2)-3p2---------------5--3--2--|
|--0----0--2--3----------------|------------------3------3-2-3-----------|
|------------------------------|-----------------------------------------|
                                                         ...
 7                             8
       |___3__|     |___3___|    |______3___| |__3__|               |____3___|
|-----------------------------|------------------------------------------------|
|-----------------------------|------------------------------------------------|
|--2--------------------------|------------------------------------------------|
|--2-------------5---------5--|--(5/7)--9--10-9h10p(9\7)-----7-9-10--12--9--10-|
|--0----0--2--3---------7-----|------------------------------------------------|
|-----------------------------|------------------------------------------------|

 9                      10
                          |_3_| |_______3_________|        |__3__|
|----------------------|--------------------------------------------|
|----------------------|--------------------------------------------|
|--9----5----7----4---4|--4h5p4\2---------4-5-4h5p4\2---4--5--4--5--|
|----------------------|--------------------------------------------|
|----------------------|--------------------------------------------|
|----------------------|--------------------------------------------|

 11                            12
             |______3_______|                             |__3__|
|-----------------------------|-----------------------------------|
|-----------------------------|-----------------------------------|
|--9----5----10----9----7-----|-----------------------------------|
|--------------------------9--|--10----(10)\5----(5)\3----2-------|
|-----------------------------|--------------------------------3--|
|-----------------------------|-----------------------------------|

 13                             14
        |__3__|       |__3__|     |____3____| |_______3_____|  |___3___|
|------------------------------|-----------------------------------------|
|------------------------------|-----------------------------------------|
|--2---------------------------|-----------------------------------------|
|--2-------------5----5--3--2--|--3---5p(3\2)-3p2---------------5--3--2--|
|--0----0--2--3----------------|------------------3------3-2-3-----------|
|------------------------------|-----------------------------------------|
                                                         ...
 15                            16
       |___3__|     |___3___|    |______3___| |__3__|               |____3___|
|-----------------------------|------------------------------------------------|
|-----------------------------|------------------------------------------------|
|--2--------------------------|------------------------------------------------|
|--2-------------5---------5--|--(5/7)--9--10-9h10p(9\7)-----7-9-10--12--9--10-|
|--0----0--2--3---------7-----|------------------------------------------------|
|-----------------------------|------------------------------------------------|

 17                     18
                          |_3_| |_______3_________|        |__3__|
|----------------------|--------------------------------------------|
|----------------------|--------------------------------------------|
|--9----5----7----4---4|--4h5p4\2---------4-5-4h5p4\2---4--5--4--5--|
|----------------------|--------------------------------------------|
|----------------------|--------------------------------------------|
|----------------------|--------------------------------------------|

 19                            20
             |__3__| |__3___|
|-----------------------------|--------------------------------||
|-----------------------------|--------------------------------||
|--9----5----10----9----7-----|--------------------------------||
|--------------------------9--|--10----(10)\5----(5)\3----2h   ||**
|-----------------------------|--------------------------------||
|-----------------------------|--------------------------------||



** This hammer-on extends over to riff 3 (When this riff is repeated later don't
use this hammer-on)



================================================================================
Riff 3b: Guitar 2 (Play once through)
================================================================================


  1                         2
||-------------------------|----------------------------|
||-------------------------|----------------------------|
||-------------------------|----------------------------|
||--7----7----5----5----5--|--3----3----3--3----3----3--|
||--7----7----5----5----5--|--3----3----3--3----3----3--|
||--5----5----3----3----3--|--1----1----1--1----1----1--|
                                       ...

 3                         4      |______3_______|
|-------------------------|---------------------------------|
|-------------------------|---------------------------------|
|-------------------------|---------------------------------|
|--7----7----5----5----5--|--3----3----3--3--3-3-3--3----5--|
|--7----7----5----5----5--|--3----3----3--3--3-3-3--3----5--|
|--5----5----3----3----3--|--1----1----1--1--1-1-1--1----3--|
                                      ...    .....

 5                         6                   |__3__|
|-------------------------|-----------------------------|
|-------------------------|-----------------------------|
|-------------------------|-----------------------------|
|--7----7----5----5----5--|--3----3----3--3----3--3--3--|
|--7----7----5----5----5--|--3----3----3--3----3--3--3--|
|--5----5----3----3----3--|--1----1----1--1----1--1--1--|
                                      ...        ...

 7                         8      |_______3______|
|-------------------------|---------------------------------|
|-------------------------|---------------------------------|
|-------------------------|---------------------------------|
|--7----7----5----5----5--|--3----3----3--3--3-3-3--3----5--|
|--7----7----5----5----5--|--3----3----3--3--3-3-3--3----5--|
|--5----5----3----3----3--|--1----1----1--1--1-1-1--1----3--|
                                      ...    .....

 9                          10         |______3_____|
|--------------------------|---------------------------------|
|--------------------------|---------------------------------|
|--------------------------|---------------------------------|
|--14----14----12----12\ --|--3--------3--3--3-3-3--3--3--5--|
|--12----12----10----10\ --|--3--------3--3--3-3-3--3--3--5--|
|--------------------------|--1--------1--1--1-1-1--1--1--3--|
                                      ...    .....

 11                         12         |______3_____|
|--------------------------|---------------------------------|
|--------------------------|---------------------------------|
|--------------------------|---------------------------------|
|--14----14----12----12\ --|--3--------3--3--3-3-3--3--3--5--|
|--12----12----10----10\ --|--3--------3--3--3-3-3--3--3--5--|
|--------------------------|--1--------1--1--1-1-1--1--1--3--|
                                      ...    .....

 13                        14     |_______3______|
|-------------------------|---------------------------------|
|-------------------------|---------------------------------|
|-------------------------|---------------------------------|
|--7----7----5----5----5--|--3----3----3--3--3-3-3--3----5--|
|--7----7----5----5----5--|--3----3----3--3--3-3-3--3----5--|
|--5----5----3----3----3--|--1----1----1--1--1-1-1--1----3--|
                                      ...    .....

 15                        16     |_______3______|
|-------------------------|---------------------------------|
|-------------------------|---------------------------------|
|-------------------------|---------------------------------|
|--7----7----5----5----5--|--3----3----3--3--3-3-3--3----5--|
|--7----7----5----5----5--|--3----3----3--3--3-3-3--3----5--|
|--5----5----3----3----3--|--1----1----1--1--1-1-1--1----3--|
                                      ...    .....

 17                         18         |______3_____|
|--------------------------|---------------------------------|
|--------------------------|---------------------------------|
|--------------------------|---------------------------------|
|--14----14----12----12\ --|--3--------3--3--3-3-3--3--3--5--|
|--12----12----10----10\ --|--3--------3--3--3-3-3--3--3--5--|
|--------------------------|--1--------1--1--1-1-1--1--1--3--|
                                      ...    .....

 19                         20         |______3_____|
|--------------------------|---------------------------------||
|--------------------------|---------------------------------||
|--------------------------|---------------------------------||
|--14----14----12----12\ --|--3--------3--3--3-3-3--3--3--5--||
|--12----12----10----10\ --|--3--------3--3--3-3-3--3--3--5--||
|--------------------------|--1--------1--1--1-1-1--1--1--3--||
                                      ...    .....



================================================================================
Riff 4a: Guitar 1 (Play once through) [Tempo = 50 BPM]
================================================================================


    |__3__|       |__3__| |___3__|         |___3__| |__3___| |___3__|
||----------------------------------|----------------------------------|
||----------------------------------|----------------------------------|
||----------------------------2-----|----------------------------------|
||  (2)h3p2--2----------------2--5--|--5----5--------------------------|
||----------------2h  3p2--2--0--5--|--5-------5-----0--2--3--5--2--3--|
||-------------------------------3--|--3----------3--------------------|
                                ...

   |__3__|       |__3__| |___3__|         |__3___| |__3___| |___3___|
|----------------------------------|----------------------------------|
|----------------------------------|----------------------------------|
|----------------------------2-----|----------------------------------|
|--2---3p2--2----------------2--5--|--5----5--------------------------|
|----------------2h  3p2--2--0--5--|--5-------5-----0--2--3--0--2--3--|
|-------------------------------3--|--3----------3--------------------|
                               ...                 ...       ........

   |__3__|       |__3__| |___3__|         |__3___| |__3___| |___3___|
|----------------------------------|----------------------------------|
|----------------------------------|----------------------------------|
|----------------------------------|----------------------------------|
|--2---3p2--2-------------------5--|--5----5--------------------------|
|----------------2h  3p2--2--0--5--|--5-------5-----0--2--3--5--2--3--|
|-------------------------------3--|--3----------3--------------------|
                               ...                 ...

   |__3__|       |__3__| |___3__|     |__3___||__3___|  |__3___| |___3___|
|----------------------------------|--------------------------------------||
|----------------------------------|--------------------------------------||
|----------------------------------|--------------------------------------||
|--2---3p2--2----------------------|--5----5-5-5--------------------------||
|----------------2h  3p2--2--0-----|--5----5-5----5-----0--2--3--0--2--3--||
|-------------------------------3--|--3----3-3-------3--------------------||
                               ...         ...                   .......



================================================================================
Riff 4b: Guitar 2 (Play once through)
================================================================================


    |__3__|       |__3__| |__3___|              |___3__|  |__3__|
||----------------------------------|------------------------------|
||----------------------------------|------------------------------|
||----------------------------------|------------------------------|
||--2---3p2--2-------------------5--|--5----5----------------------|
||----------------2h  3p2--2--0--5--|--5----5----0--2--3--5--2--3--|
||-------------------------------3--|--3----3----------------------|
                                ...

   |__3__|  |__3__|  |__3__| |__3___|              |__3___| |___3__|
|--------------------------------------|------------------------------|
|--------------------------------------|------------------------------|
|--------------------------------------|------------------------------|
|--2---3p2--2--0-----------------------|--5---------------------------|
|-----------------3--2h  3p2--2--0-----|--5--------0--2--2h3-0--2--3--|
|-----------------------------------3--|--3---------------------------|
                                   ...

   |__3__|       |__3__| |___3___|              |__3__| |___3___|
|----------------------------------|------------------------------|
|----------------------------------|------------------------------|
|----------------------------------|------------------------------|
|--2---3p2--2----------------------|--5----5----------------------|
|----------------2h  3p2--2--0-----|--5----5----0--2--3--5--2--3--|
|-------------------------------3--|--3----3----------------------|
                               ...

  |__3___| |__3___| |___3__| |__3___|                  |___3____| |__3___|
|--------------------------------------|----------------------------------||
|--------------------------------------|----------------------------------||
|--------------------------------------|----------------------------------||
|--2---3p2--2--0-----------------------|--5----5--5-----------------------||
|-----------------3--2h  3p2--2--0-----|--5----5--5----0--2--2h3-0--2--3--||
|-----------------------------------3--|--3----3--3-----------------------||
                                   ...        ...



================================================================================
Riff 5a: Guitar 1 (Play once through)
================================================================================


  1                                             2
    |___3_____| |__3___|  |__3___|  |__3_____|
||---------------------------------------------|---------------------------|
||---------------------------------------------|---------------------------|
||---------------------------------------------|---------------------------|
||--9------------------------------------------|--2--------2--5----5--7----|
||------10-9-10-(9\7)--7--(7\5)--5--(5\2)------|--2--------2--5----5--7----|
||-----------------------------------------3-2-|--0--------0--3----3--5----|
        .......                            ...

 3
   |___3_____| |__3___|  |__3___|  |__3_____|
|---------------------------------------------|
|---------------------------------------------|
|---------------------------------------------|
|--9------------------------------------------|
|------10-9-10-(9\7)--7--(7\5)--5--(5\2)------|
|-----------------------------------------3-2-|
       .......                            ...

 4
   |___3_____| |__3___|
|------------------------------------|
|------------------------------------|
|------------------------------------|
|--2---------------------------------|
|--2---10-9-10-(9\7)--9--10----12----|
|--0---------------------------------|
       .......

 5
   |___3_____| |__3___|  |__3___|  |__3_____|
|---------------------------------------------|
|---------------------------------------------|
|---------------------------------------------|
|--9------------------------------------------|
|------10-9-10-(9\7)--7--(7\5)--5--(5\2)------|
|-----------------------------------------3-2-|
       .......                            ...

 6
  |____3_____| |__3___|
|---------------------------------------|
|---------------------------------------|
|---------------------------------------|
|--2------------------------------------|
|--2---10-9-10-(9\7)--9--10----10--9----|
|--0------------------------------------|
       .......

 7
   |___3_____| |__3___|  |__3___|  |__3_____|
|---------------------------------------------|
|---------------------------------------------|
|---------------------------------------------|
|--9------------------------------------------|
|------10-9-10-(9\7)--7--(7\5)--5--(5\2)------|
|-----------------------------------------3-2-|
       .......                            ...

 8
   |___3_____| |__3___|
|----------------------------------------|
|----------------------------------------|
|----------------------------------------|
|--2-------------------------------------|
|--2---10-9-10-(9\7)--9--10----10--12----|
|--0-------------------------------------|
       .......

 9
   |___3_____| |__3___|  |__3___|  |__3_____|
|---------------------------------------------|
|---------------------------------------------|
|---------------------------------------------|
|--9------------------------------------------|
|------10-9-10-(9\7)--7--(7\5)--5--(5\2)------|
|-----------------------------------------3-2-|
       .......                            ...

 10
  |____3_____| |__3___|
|---------------------------------------|
|---------------------------------------|
|---------------------------------------|
|--2------------------------------------|
|--2---10-9-10-(9\7)--9--10----10--9----|
|--0------------------------------------|
       .......

 11                                            12
   |___3_____| |__3___|  |__3___|  |__3_____|
|---------------------------------------------|---------------------||
|---------------------------------------------|---------------------||
|---------------------------------------------|---------------------||
|--9------------------------------------------|--2--------5----7----||
|------10-9-10-(9\7)--7--(7\5)--5--(5\2)------|--2--------5----7----||
|-----------------------------------------3-2-|--0--------3----5----||
       .......                            ...



================================================================================
Riff 5b: Guitar 2 (Play once through)
================================================================================


 1
    |___3_____|                   |__3______|
||-------------------------------------------|
||-------------------------------------------|
||-------------------------------------------|
||--9----------------------------------------|
||------10-9-10-(9\7)----(7\5)----(5\2)------|
||---------------------------------------3-2-|
                                         ...
 2
   |____3____| |__3____|
|------------------------------------|
|------------------------------------|
|------------------------------------|
|--2---------------------------------|
|--2---10-9-10-(9\7)--(9\10)----9----|
|--0---------------------------------|

 3
   |___3_____|                   |__3______|
|-------------------------------------------|
|-------------------------------------------|
|-------------------------------------------|
|--9----------------------------------------|
|------10-9-10-(9\7)----(7\5)----(5\2)------|
|---------------------------------------3-2-|
                                        ...
 4
   |____3____| |____3____| |____3_______|
|-----------------------------------------------|
|-----------------------------------------------|
|-----------------------------------------------|
|--2--------------------------------------------|
|--2---10-9-10-(9\7)--9-(9/10)----(10/12)-12----|
|--0--------------------------------------------|

 5
   |___3_____|                   |__3______|
|-------------------------------------------|
|-------------------------------------------|
|-------------------------------------------|
|--9----------------------------------------|
|------10-9-10-(9\7)----(7\5)----(5\2)------|
|---------------------------------------3-2-|
                                        ...
 6
   |____3____| |__3___|
|---------------------------------------|
|---------------------------------------|
|---------------------------------------|
|--2------------------------------------|
|--2---10-9-10-(9\7)--9--10----10--9----|
|--0------------------------------------|

 7
   |___3_____|                   |__3______|
|-------------------------------------------|
|-------------------------------------------|
|-------------------------------------------|
|--9----------------------------------------|
|------10-9-10-(9\7)----(7\5)----(5\2)------|
|---------------------------------------3-2-|
                                        ...
 8
   |____3____| |____3____| |____3_______|
|-----------------------------------------------|
|-----------------------------------------------|
|-----------------------------------------------|
|--2--------------------------------------------|
|--2---10-9-10-(9\7)--9-(9/10)----(10/12)-12----|
|--0--------------------------------------------|

 9
   |___3_____|                   |__3______|
|-------------------------------------------|
|-------------------------------------------|
|-------------------------------------------|
|--9----------------------------------------|
|------10-9-10-(9\7)----(7\5)----(5\2)------|
|---------------------------------------3-2-|
                                        ...
 10
   |____3____| |__3___|
|---------------------------------------|
|---------------------------------------|
|---------------------------------------|
|--2------------------------------------|
|--2---10-9-10-(9\7)--9--10----10--9----|
|--0------------------------------------|

 11
   |____3____| |__3___|
|---------------------------------------|
|---------------------------------------|
|---------------------------------------|
|--2------------------------------------|
|--2---10-9-10-(9\7)--9--10----10--9----|
|--0------------------------------------|

 12
   |____3____| |__3___|
|-----------------------------------------||
|-----------------------------------------||
|-----------------------------------------||
|--2--------------------------------------||
|--2---10-9-10-(9\7)--9--10----(10/12)----||
|--0--------------------------------------||



================================================================================
Riff 6a: Guitar 1 (Play once through) [Tempo = 65 BPM]
================================================================================


||------------------------|------------------------|
||------------------------|------------------------|
||------------------------|-----------5--4---------|
||-----5--(5/6)~~----5~~--|-----5--6----------6\ --|
||--3---------------------|--3---------------------|
||------------------------|------------------------|
   ...                      ...

                                               S.H
|------------------------|-------------------------|------------------------|
|------------------------|----------------------*--|------------------------|
|------------------------|-----------5--4t5    -0--|------------------------|
|-----5--(5/6)~~----5~~--|-----5--6----------------|-----5--(5/6)~~----5~~--|
|--3---------------------|--3----------------------|--3---------------------|
|------------------------|-------------------------|------------------------|
  ...                      ...                       ...

|------------------------|------------------------|------------------------||
|------------------------|------------------------|------------------------||
|-----------5--4---------|------------------------|-----------5--4t5   -0--||
|-----5--6----------6\ --|-----5--(5/6)~~----5~~--|-----5--6---------------||
|--3---------------------|--3---------------------|--3---------------------||
|------------------------|------------------------|------------------------||
  ...                      ...                      ...



================================================================================
Riff 6b: Guitar 2 (Play once through)
================================================================================


||------------------------|------------------------|
||------------------------|------------------------|
||------------------------|-----------5--4---------|
||-----5--(5/6)~~----5~~--|-----5--6--5--4----6----|
||--3---------------------|--3--5--6--3--2----6----|
||------------------------|-----3--4----------4----|
   ...                      ...

|------------------------|-----------------------|------------------------|
|------------------------|-----------------------|------------------------|
|------------------------|-----------5--4--------|------------------------|
|-----5--(5/6)~~----5~~--|-----5--6--5--4--------|-----5--(5/6)~~----5~~--|
|--3---------------------|--3--5--6--3--2--------|--3---------------------|
|------------------------|-----3--4--------------|------------------------|
  ...                      ...                     ...

|------------------------|------------------------|-----------------------||
|------------------------|------------------------|-----------------------||
|-----------5--4---------|------------------------|-----------5--4--------||
|-----5--6--5--4----6----|-----5--(5/6)~~----5~~--|-----5--6--5--4--------||
|--3--5--6--3--2----6----|--3---------------------|--3--5--6--3--2--------||
|-----3--4----------4----|------------------------|-----3--4--------------||
  ...                      ...                      ...



================================================================================
Guitars 1 and 2 play riffs 2a and 2b respectively [Tempo = 60 BPM]
================================================================================


================================================================================
Riff 7 <Variation of riff 3a>: Guitar 1 (Play once through)
================================================================================


  1                              2
         |__3__|       |__3__|     |___3____| |_______3_______| |___3__|
||------------------------------|-----------------------------------------|
||------------------------------|-----------------------------------------|
||--2---------------------------|-----------------------------------------|
||--2-------------5----5--3--2--|--3---5p(3\2)-3p2---------------5--3--2--|
||--0----0--2--3----------------|------------------3------3-2-3-----------|
||------------------------------|-----------------------------------------|
                                                          ...

 3                              4
        |__3__|       |__3__|          |__3___|      |__3___|
|------------------------------|------------------------------|
|------------------------------|------------------------------|
|--2---------------------------|------------------------------|
|--2-------------5----5--3--2--|--3----5----3-2-3----5--3--2--|
|--0----0--2--3----------------|------------------------------|
|------------------------------|------------------------------|

 5                              6
        |__3__|       |__3__|     |___3____| |_______3_______| |___3__|
|------------------------------|-----------------------------------------|
|------------------------------|-----------------------------------------|
|--2---------------------------|-----------------------------------------|
|--2-------------5----5--3--2--|--3---5p(3\2)-3p2---------------5--3--2--|
|--0----0--2--3----------------|------------------3------3-2-3-----------|
|------------------------------|-----------------------------------------|
                                                         ...

 7
        |__3__|      |__3___|
|-----------------------------|
|-----------------------------|
|--2--------------------------|
|--2-------------5---------5--|
|--0----0--2--3---------7-----|
|-----------------------------|

 8                                                 9
   |____3_____| |_3___|                |___3____|
|-------------------------------------------------|----------------------|
|-------------------------------------------------|----------------------|
|-------------------------------------------------|--9----5----7----4---4|
|--(5/7)--9--10-9h10p(9\7)-----7-9-10--12--9--10--|----------------------|
|-------------------------------------------------|----------------------|
|-------------------------------------------------|----------------------|

 10                                           11
   |_3_| |________3________|        |__3__|               |_____3_______|
|--------------------------------------------|-----------------------------|
|--------------------------------------------|-----------------------------|
|--4h5p4\2---------4-5-4h5p4\2---4--5--4--5--|--9----5----10----9----7-----|
|--------------------------------------------|--------------------------9--|
|--------------------------------------------|-----------------------------|
|--------------------------------------------|-----------------------------|


 12                                  13     |__3__|       |__3__|
|-----------------------------------|------------------------------|
|-----------------------------------|------------------------------|
|-----------------------------------|--2---------------------------|
|--10----(10)\5----(5)\3----2-------|--2-------------5----5--3--2--|
|--------------------------------3--|--0----0--2--3----------------|
|-----------------------------------|------------------------------|

 14                                        15
   |___3____| |_______3_______| |___3__|          |__3__|     |___3__|
|-----------------------------------------|-----------------------------|
|-----------------------------------------|-----------------------------|
|-----------------------------------------|--2--------------------------|
|--3---5p(3\2)-3p2---------------5--3--2--|--2-------------5---------5--|
|------------------3------3-2-3-----------|--0----0--2--3---------7-----|
|-----------------------------------------|-----------------------------|
                          ...

 16                                                17
   |____3_____| |_3___|                |___3____|
|-------------------------------------------------|----------------------|
|-------------------------------------------------|----------------------|
|-------------------------------------------------|--9----5----7----4---4|
|--(5/7)--9--10-9h10p(9\7)-----7-9-10--12--9--10--|----------------------|
|-------------------------------------------------|----------------------|
|-------------------------------------------------|----------------------|

 18                                           19
   |_3_| |________3________|        |__3__|               |_____3_______|
|--------------------------------------------|-----------------------------|
|--------------------------------------------|-----------------------------|
|--4h5p4\2---------4-5-4h5p4\2---4--5--4--5--|--9----5----10----9----7--4--|
|--------------------------------------------|-----------------------------|
|--------------------------------------------|-----------------------------|
|--------------------------------------------|-----------------------------|

 20                               21
        |___3__|      |___3___|          |__3__|
|--------------------------------|----------------------------|
|--------------------------------|----------------------------|
|--5----7----5-7-9----10--9------|--2----2--4--5--------------|
|----------------------------10--|--2----2--4--5--5--------2--|
|--------------------------------|--0----0--2--3--5--------2--|
|--------------------------------|----------------3--------0--|
                                            ....

 22                                    23
   |______3______|  |__3__|  |__3__|         |___3__|
|-------------------------------------|----------------------------|
|-------------------------------------|----------------------------|
|-------------------------------------|--2----2--4--5--------------|
|--3----3--3--3--3--3--3--3--5--5--5--|--2----2--4--5--5--------2--|
|--3----3--3--3--3--3--3--3--5--5--5--|--0----0--2--3--5--------2--|
|--1----1--1--1--1--1--1--1--3--3--3--|----------------3--------0--|
           .........................             ....

 24                                    25
   |______3______|  |__3__|  |__3__|         |___3__|
|-------------------------------------|----------------------------|
|-------------------------------------|----------------------------|
|-------------------------------------|--2----2--4--5--------------|
|--3----3--3--3--3--3--3--3--5--5--5--|--2----2--4--5--5--------2--|
|--3----3--3--3--3--3--3--3--5--5--5--|--0----0--2--3--5--------2--|
|--1----1--1--1--1--1--1--1--3--3--3--|----------------3--------0--|
           .........................             ....

 26                                    27
   |______3______|  |__3__|  |__3__|         |___3__|
|-------------------------------------|----------------------------|
|-------------------------------------|----------------------------|
|-------------------------------------|--2----2--4--5--------------|
|--3----3--3--3--3--3--3--3--5--5--5--|--2----2--4--5--5--------2--|
|--3----3--3--3--3--3--3--3--5--5--5--|--0----0--2--3--5--------2--|
|--1----1--1--1--1--1--1--1--3--3--3--|----------------3--------0--|
           .........................             ....

 28                                    29
   |______3______|  |__3__|  |__3__|          |__3__|       |__3__|
|-------------------------------------|------------------------------|
|-------------------------------------|------------------------------|
|-------------------------------------|--2---------------------------|
|--3----3--3--3--3--3--3--3--5--5--5--|--2-------------5----5--3--2--|
|--3----3--3--3--3--3--3--3--5--5--5--|--0----0--2--3----------------|
|--1----1--1--1--1--1--1--1--3--3--3--|------------------------------|
           .........................

 30                                        31
   |____3____| |______3_______|  |__3__|          |__3__|     |___3___|
|-----------------------------------------|-----------------------------|
|-----------------------------------------|-----------------------------|
|-----------------------------------------|--2--------------------------|
|--3---5p(3\2)-3p2---------------5--3--2--|--2-------------5---------5--|
|------------------3------3-2-3-----------|--0----0--2--3---------7-----|
|-----------------------------------------|-----------------------------|
                          ...
 32                                                33
   |____3_____| |_3___|                |___3____|
|-------------------------------------------------|----------------------|
|-------------------------------------------------|----------------------|
|-------------------------------------------------|--9----5----7----4---4|
|--(5/7)--9--10-9h10p(9\7)-----7-9-10--12--9--10--|----------------------|
|-------------------------------------------------|----------------------|
|-------------------------------------------------|----------------------|

 34                                           35
   |_3_| |________3________|        |__3__|               |_____3_______|
|--------------------------------------------|-----------------------------|
|--------------------------------------------|-----------------------------|
|--4h5p4\2---------4-5-4h5p4\2---4--5--4--5--|--9----5----10----9----7-----|
|--------------------------------------------|--------------------------9--|
|--------------------------------------------|-----------------------------|
|--------------------------------------------|-----------------------------|

 36                                  37
|-----------------------------------|-------------------||
|-----------------------------------|-------------------||
|-----------------------------------|--2----------------||
|--10----(10)\5----(5)\3----2-------|--2----------------||
|--------------------------------3--|--0----------------||
|-----------------------------------|-------------------||



Allow the last bar to ring out



================================================================================
Guitar 2 plays Riff 3b, followed by bars 23 - 28 of Riff 7a, then Riff 3b again
================================================================================


When guitar 2 is finished the last repeat of riff 3b, end on the last bar of
riff 7



================================================================================
Lead Riff: Guitar 3 with heavy distortion (Play once)
================================================================================


 1     |_____3_____|
|----------------------------------|
|----------------------------------|
|--9---------9h10p(9\7)----7----9--|
|----------------------------------|
|----------------------------------|
|----------------------------------|

 2 |_______________3________________|   3      |__3___|
|--------------------------------------|------------------------------|
|--------------------------------------|------------------------------|
|--10----9-----------10--9-------------|------------------------------|
|-----------7---------------10--9--10--|--7----7--9--10--9--------10--|
|--------------------------------------|------------------------------|
|--------------------------------------|------------------------------|

 4 |____3___|      |__3___|  |___3__|
|--------------------------------------|
|--------------------------------------|
|------------------------10--9---------|
|--12----10-9-10------7---------10--9--|
|--------------------------------------|
|--------------------------------------|
         ....
 5
|--------------------------------------|
|--------------------------------------|
|--12----10----9--9h10p(9\7)--------9--|
|--------------------------------------|
|--------------------------------------|
|--------------------------------------|

 6 |_____3___|  |_______3________|            7 |____3_______|     |___3___|
|--------------------------------------------|-------------------------------|
|--------------------------------------------|-------------------------------|
|--(9/10)---10--10----10--10--9--7--9----10--|--9----9----7--5--4------2--4--|
|--------------------------------------------|-------------------------------|
|--------------------------------------------|-------------------------------|
|--------------------------------------------|-------------------------------|

 8 |_____3______|  |______3______|   9      |__3___|        |___3___|
|-----------------------------------|----------------------------------|
|-----------------------------------|----------------------------------|
|--5----5--5----5--5----7--4h 5p 4--|-----------------12----12--10--9--|
|-----------------------------------|--7----7--9--10-------------------|
|-----------------------------------|----------------------------------|
|-----------------------------------|----------------------------------|

 10|____3______|  |______3___________|  |___3___|
|--------------------------------------------------|
|--------------------------------------------------|
|--10---12p(10\9)-10p9------------------12--10--9--|
|----------------------10------10-9-10-------------|
|--------------------------------------------------|
|--------------------------------------------------|

 11     |__3___|        |___3___|   12        |___3___|  |__3___|
|----------------------------------|------------------------------|
|----------------------------------|------------------------------|
|-----------------12----12--10--9--|--10----------9--10--9--7--5--|
|--7----7--9--10-------------------|------------------------------|
|----------------------------------|------------------------------|
|----------------------------------|------------------------------|

 13|____3_______|                14|__3__| |__3___| |___3__|  |___3___|
|-------------------------------|----------------------------------------|
|-------------------------------|----------------------------------------|
|--9----7----5--4---------------|-----------5--4-----7--5--4--12--10--9--|
|------------------5----5----2--|--3--2--3--------5----------------------|
|-------------------------------|----------------------------------------|
|-------------------------------|----------------------------------------|

 15     |__3____|    |___3___|  16    |___3___|  |___3____| |___3____|
|------------------------------|---------------------------------------|
|------------------------------|---------------------------------------|
|------------------------------|----------------------------12--9--10--|
|--7----7--9---10-9------7--9--|--10------9--10--12--9--10-------------|
|------------------------------|---------------------------------------|
|------------------------------|---------------------------------------|

 17
|-------------------||
|-------------------||
|--9----------------||
|-------------------||
|-------------------||
|-------------------||



This lead enters on bar 21 of riff 7a



Allow the last bar to ring out



================================================================================
End
================================================================================


Tab summary:        Riff 1a + 1b x 3
                    Riff 2a + 2b x 2
                    Riff 3a + 3b x 1
                    Riff 5a + 5b x 1
                    Riff 6a + 6b x 1
                    Riff 2a + 2b x 1
                    Riff 7 + 7b + Lead Riff x 1

                    END


-----------------------
Corrections (21/10/08):
-----------------------

* Corrected palm-muting in Riff 2a


-----------------------
Corrections (29/08/06):
-----------------------

* Corrected Riffs 2a & 2b


-----------------------
Corrections (08/04/05):
-----------------------

* Fixed rests
* Minor adjustments to layout


-----------------------
Corrections (08/04/05):
-----------------------

* Added lead guitar
* Fixed guitar 2's parts during riff 7a
* Minor adjustments to layout


-----------------------
Corrections (08/04/05):
-----------------------

* Fixed riff 2b

  Visit MetalTabs.com for more metal tablature

bottom separator

Contact Us | Privacy Policy | Disclaimer | Legal Notice
Copyright © 2001-2014 MetalTabs.com. All Rights Reserved.