top separator

Home

Forum

What's New

Submit a Tab

FAQ

Links

Contact Us

Link to Us

MetalTabs.com logo

Bands

0-9

A

B

C

D

E

F

G

H

I

J

K

L

M

N

O

P

Q

R

S

T

U

V

W

X

Y

Z

Search

What

Where
 

Aborted - "Methiculous Invagination" Guitar Tab

Plain Text Version
More Aborted Tabs

Hits: 9700
Rated: 3.91 out of 5 (11 votes)
Updated: 2005-04-14 14:31:30

 

By:

Yura

sendpm.gif

email.gif

Co-authored by:

corroded

sendpm.gif

email.gif

Important note
This tab is available online because we obtained explicit permission from Aborted or their label.


#----------------------------------PLEASE NOTE---------------------------------#
#This file is the author's own work and represents their interpretation of the #
#song. You may only use this file for private study, scholarship, or research. #
#Unless specified otherwise, this is NOT an official tab from the band members.#
#------------------------------------------------------------------------------#

  Visit MetalTabs.com for more metal tablature
  
Song : METICULOUS INVAGINATION
Band : ABORTED
ALBUM : GOREMAGEDDON - THE SAW AND THE CARNAGE DONE
Copyright Listenable Records 2003 
Transcribed by : Yura Kowalchuk
Solo Transcribed by : corroded


TUNING: B [B, E, A, d, g, B]

[Riff 1 (x2)]
||--------------------------|--------------------------||
||o-------------------------|-------------------------o||
||--------------------------|--------------------------||
||--------------------------|-------------------1"-----||
||o-1"----------2"----------|-1"----------2"-3"----3"-o||
||-----0"......----1"-4"-1"-|----0"......--------------||

[Riff 2]
|------------|------------|------------|------------|
|------------|------------|------------|------------|
|------------|------------|------------|------------|
|-2----2--2--|-2----2--2--|-0----0--0--|-0----0--0--|
|-2----2--2--|-2----2--2--|-2----2--2--|-2----2--2--|
|-0----0--0--|-0----0--0--|-5----5--5--|-3----3--3--|
  .    .  .    .    .  .    .    .  .    .    .  .

[Riff 3 (x3)
||----------------------------------|-
||o---------------------------------|-
||----------------------------------|-
||----------------------------------|-
||o-------------------------3-0-5-0-|-
||--1-0-2-0-5-0-3-0-2-0-3-0---------|-
    . . . . . . . . . . . . . . . .

---------------------------------|----------------------------------||
---------------------------------|---------------------------------o||
---------------------------------|----------------------------------||
---------------------------------|----------------------------------||
-------------------------3-0-5-0-|-6-------3-------5-------3-------o||
-1-0-2-0-5-0-3-0-2-0-3-0---------|---5-5-5---5-5-5---3-3-3---3-3-3--||
 . . . . . . . . . . . . . . . .     . . .   . . .   . . .   . . .

[Riff 4 (x2)]
||---------------------------------------------------|-
||o--------------------------------------------------|-
||---------------------------------------------------|-
||------4\3---------6\5---------4\3------------------|-
||o-2---2\1---3\2---4\3---3\2---2\1---3\2---------5--|-
||--0-0-----0-1\0-0-----0-1\0-0-----0-1\0-0-0-0-0-3--|-
      .     .     .     .     .     .     . . . .

------------------------------------------------------------------||
-----------------------------------------------------------------o||
------------------------------------------------------------------||
---------4\3-------------6\5-------------4\3----------------------||
-3\2-----2\1-----3\2-----4\3-----3\2-----2\1-----3\2-------------o||
-1\0-0-0-----0-0-1\0-0-0-----0-0-1\0-0-0-----0-0-1\0-0-0-0-0-0-0--||
     . .     . .     . .     . .     . .     . .     . . . . . .

[RIFF 3] [RIFF 1 (x2)]

[Riff 5 (x2)]
||--------------------------|--------------------------||
||o-------------------------|-------------------------o||
||--------------------------|--------------------------||
||--------------------------|-------------------6"-----||
||o-6"----------7"----------|-6"----------7"-8"----8"-o||
||-----5"......----6"-9"-6"-|----5"......--------------||

[Riff 6]
||---------------------------------|-
||---------------------------------|-
||---------------------------------|-
||-----3-----4---------3-----------|-
||-3-3-1-3-3-2-2-3-6-3-1-3-5-4-3-4-|-
||-1-1---1-1---0-1-4-1---1-3-2-1-2-|-
  . .   . .   . . . .   . . . . .

-|-------------------------------------[x2]-|-
-|o----------------------------------------o|-
-|------------------------------------------|-
-|------^-------------------^---------------|-
-|o-4-3-1~--4-3-^-----4-3-4-1~----5-4-3-4--o|-
-|--2-1-----2-1-2~--0-2-1-2-----0-3-2-1-2---|-
    . .     . .     . . . .     . . . . .

-|---------------------------------|------------------------------[x2]-|-
-|---------------------------------|o---------------------------------o|-
-|---------------------------------|-----------------------------------|-
-|-----3-----4---------3-----------|------5-----6---------5------------|-
-|-3-3-1-3-3-2-2-3-6-3-1-3-5-4-3-4-|o-5-5-3-5-5-4-2-3-6-3-3-2-7-6-5-6-o|-
-|-1-1---1-1---0-1-4-1---1-3-2-1-2-|--3-3---3-3---0-1-4-1---0-5-4-3-4--|-
   . .   . .   . . . .   . . . . .    . .   . .   . . . .   . . . . .

-|-------------------------------------[x2]-||
-|o----------------------------------------o||
-|------------------------------------------||
-|------^-------------------^---------------||
-|o-4-3-1~--4-3-^-----4-3-4-1~----5-4-3-4--o||
-|--2-1-----2-1-2~--0-2-1-2-----0-3-2-1-2---||
    . .     . .     . . . .     . . . . .

[Riff 7]
||-------------------------------------------------------------|-
||-------------------------------------------------------------|-
||-------------------------------------------------------------|-
||-------------------------------------------------------------|-
||-------------7"........----5"........----3"........----------|-
||-0"......-5"------------3"------------1"------------1-4-3--1-|-
 |                                                    . . .  . |
||-------------------------------------------------------------|-
||-------------------------------------------------------------|-
||-------------------------------------------------------------|-
||-------------------------------------------------------------|-
||-------------7"........----5"........----3"........----------|-
||-0"......-5"------------3"------------1"------------1-4-3--1-|-
                                                      . . .  .

-|-------------------------------------------------------------||
-|-------------------------------------------------------------||
-|-------------------------------------------------------------||
-|-------------9"........----7"........----5"........----------||
-|----------7"------------5"------------3"---------------------||
-|-0"......-------------------------------------------1-4-3--1-||
 |                                                    . . .  .  |
-|-------------------------------------------------------------||
-|-------------------------------------------------------------||
-|-------------------------------------------------------------||
-|-------------------------------------------------------------||
-|-------------7"........----5"........----3"........----------||
-|-0"......-5"------------3"------------1"------------1-4-3--1-||
                                                      . . .  .

[Riff 8 (x2)] /under solo/
||---------------|----------|----------|----------------||
||o--------------|----------|----------|---------------o||
||-------------4-|----------|----------|----------------||
||--9-9--7--5--2-|-2=======-|-7=======-|-5--------------||
||o-7-7--5--3----|-2=======-|-5=======-|-3-------------o||
||---------------|-0=======-|-5=======-|-3---1-4-3--1---||

[RIFF 2]

[Outro]
|---------------------------------|----------------------------------|
|---------------------------------|----------------------------------|
|---------------------------------|----------------------------------|
|---------------------------------|----------------------------------|
|---------------------------------|----------------------------------|
|-1-0-2-0-5-0-3-0-1-0-2-0-5-0-3-0-|-1-0-2-0-5-0-3-0-1-0-2-0-5-0-3-0--|
  . . . . . . . . . . . . . . . .   . . . . . . . . . . . . . . . .

[RIFF 4 (x2)]

[Ending]
|---------------------------------|------------|
|---------------------------------|------------|
|---------------------------------|------------|
|---------------------------------|-2----------|
|---------------------------------|-2----------|
|-1-0-2-0-5-0-3-0-1-0-2-0-5-0-3-0-|-0----------|
  . . . . . . . . . . . . . . . .   .

END OF SONG
------------------------------------------------

Solo

|----------------------------------------------|
|---------~------------------------------------|
|-/9-11-9-11---12----14-14b==r-----11-12-14----|
|-------------------------------14-------------|
|-/7--9-7--9---10------------------------------|
|----------------------------------------------|

|----------------------------------------------|
|-----------------~----------------------------|
|-14b-14b16r14-12-14----12-14-12h14p12-11------|
|-----------------------------------------12---|
|----------------------------------------------|
|----------------------------------------------|

|-----------------------------------------15---|
|------------------------/17-----------17------|
|-----------------------------------16---------|
|-/14---------~--------------------------------|
|-----9-7-5-5/7--------------------------------|
|----------------------------------------------|

|-17b==r17-15--19~--19-20-19h20p19-17----------|
|-------------------------------------20----20-|
|-------------------16-17-16h17p16-14----19----|
|------------------(---harmonized----)---------|
|----------------------------------------------|
|----------------------------------------------|

|----------------------------------------------|
|-22-21~---------------------------------------|
|----------------------------------------------|
|----------------------------------------------|
|----------------------------------------------|
|----------------------------------------------|

  Visit MetalTabs.com for more metal tablature

bottom separator

Contact Us | Privacy Policy | Disclaimer | Legal Notice
Copyright © 2001-2014 MetalTabs.com. All Rights Reserved.