top separator

Home

Forum

What's New

Submit a Tab

FAQ

Links

Contact Us

Link to Us

MetalTabs.com logo

Bands

0-9

A

B

C

D

E

F

G

H

I

J

K

L

M

N

O

P

Q

R

S

T

U

V

W

X

Y

Z

Search

What

Where
 

Catamenia - "One With Sorrow" Guitar Tab

Plain Text Version
More Catamenia Tabs

Hits: 4368
Rated: 5.00 out of 5 (1 vote)
Updated: 2005-04-14 14:39:33

 

By:

sendpm.gif

email.gif

Important note
This tab is available online because we obtained explicit permission from Catamenia or their label.


#----------------------------------PLEASE NOTE---------------------------------#
#This file is the author's own work and represents their interpretation of the #
#song. You may only use this file for private study, scholarship, or research. #
#Unless specified otherwise, this is NOT an official tab from the band members.#
#------------------------------------------------------------------------------#

  Visit MetalTabs.com for more metal tablature
  
Band:  (CATAMENIA)
Album: (CHAOS BORN)
Song:  (ONE WITH SORROW)

Copyright (c)  (MASSACRE) (2003)
Version 2.0 - (2005)

Transcribed By: (DIABOLO080)
Email:          (jorge_geografia2001@hotmail.com)


.  - palm mute           /  - slide up to
\  - slide down to       ~  - vibrato
h  - hammer on           b  - Bend
p  - pull off            Suffixes for bend
t  - tap                 f  - full bend    h - half bend
ph - pinched harmonic    q  - quarter bend t - tap bend
*  - see comment         ^  - Hold bend    r release bend
x  - Stuccatto           ~  - vibrato bend
,  - slight palm mute    () - ghost note, sustained note
"  - tremolo note        <> - Trill

I SEND THIS TAB AGAIN BECAUSE I HAD TO DO SOME CHANGES, NOW THE RIFF 3 (CHORUS)
ITS BETTER AND SOME LITTLE THINGS IN OTHER RIFFS

ENJOY IT

Tuning E A D G B E


RIFF 1

GUITAR 1 (FIRST TIME)
|-------------------------------------------------------------------------|
|-------------------------------------------------------------------------|
|-4-4--467-7-764-4-4--467-9-764-4-4--467-7-764----------6---9---6-7-9-7-6-|
|----------------------------------------------7-7--7-9---7---7-----------|
|-------------------------------------------------------------------------|
|-------------------------------------------------------------------------|
|                                                                         |
|GUITAR 2                                                                 |
|-------------------------------------------------------------------------|
|-------------------------------------------------------------------------|
|-------------------------------------------------------------------------|
|-4-----------------------------------------------------------------------|
|-2--------------------------------------------7--------------------------|
|----------------------------------------------5--------------------------|


GUITAR 1 (SECOND TIME)
|-------------------------------------------------------------------------|
|-------------------------------------------------------------------------|
|-4-4--467-7-764-4-4--467-9-764-4-4--467-7-764----------6---9---6-7-9-7-6-|
|----------------------------------------------7-7--7-9---7---7-----------|
|-------------------------------------------------------------------------|
|-------------------------------------------------------------------------|
|                                                                         |
|GUITAR 2                                                                 |
|-------------------------------------------------------------------------|
|-------------------------------------------------------------------------|
|-------------------------------------------------------------------------|
|-4-4---------------------------4-4---------------------------------------|
|-2-2---------------------------2-2------------7--------------------------|
|----------------------------------------------5--------------------------|



GUITAR 1 (THIRD TIME) X 4
|-------------------------------------------------------------------------|
|-------------------------------------------------------------------------|
|-4-4--467-7-764-4-4--467-9-764-4-4--467-7-764----------6---9---6-7-9-7-6-|
|----------------------------------------------7-7--7-9---7---7-----------|
|-------------------------------------------------------------------------|
|-------------------------------------------------------------------------|
|                                                                         |
|GUITAR 2                                                                 |
|-------------------------------------------------------------------------|
|-------------------------------------------------------------------------|
|-------------------------------------------------------------------------|
|-4-4--4---------4-4--4---------4-4--4------------------------------------|
|-2-2--2--5-5----2-2--2--5-4----2-2--2--5-5----7--------------------------|
|---------3-3------------3-2------------3-3----5--------------------------|


RIFF2

GUITAR 1 (FIRST TIME)
|-------------------------------------------------------------------------|
|-------------------------------------------------------------------------|
|-444444444-66666666-77777777-666666666666666666666666-777777777777777777-|
|-------------------------------------------------------------------------|
|-------------------------------------------------------------------------|
|-------------------------------------------------------------------------|

 GUITAR 2
|-------------------------------------------------------------------------|
|-------------------------------------------------------------------------|
|-------------------------------------------------------------------------|
|-4-4------4-4------4-4------4-4------------------------------------------|
|-2-2-2222-2-2-2222-2-2-2222-2-2-2222-7-7------7-7------5-5------5-5------|
|-------------------------------------5-5-5555-5-5-5555-3-3-3333-3-3-3333-|
      ....     ....     ....     ....     ....     ....     ....     ....



GUITAR 1 (SECOND TIME)
|-------------------------------------------------------------------------|
|-------------------------------------------------------------------------|
|-444444444-66666666-77777777-666666666666666666666666-777777777-99999999-|
|-------------------------------------------------------------------------|
|-------------------------------------------------------------------------|
|-------------------------------------------------------------------------|

 GUITAR 2
|-------------------------------------------------------------------------|
|-------------------------------------------------------------------------|
|-------------------------------------------------------------------------|
|-4-4------4-4------4-4------4-4------------------------------------------|
|-2-2-2222-2-2-2222-2-2-2222-2-2-2222-7-7------7-7------5-5------7-7------|
|-------------------------------------5-5-5555-5-5-5555-3-3-3333-5-5-5555-|
      ....     ....     ....     ....     ....     ....     ....     ....



GUITAR 1 (THIRD TIME)
|-------------------------------------------------------------------------|
|-------------------------------------------------------------------------|
|-777777777-999999999-11-11-11-11-99999999999999999999-777777777777777777-|
|-------------------------------------------------------------------------|
|-------------------------------------------------------------------------|
|-------------------------------------------------------------------------|

 GUITAR 2
|-------------------------------------------------------------------------|
|-------------------------------------------------------------------------|
|-------------------------------------------------------------------------|
|-4-4------4-4------4-4------4-4------------------------------------------|
|-2-2-2222-2-2-2222-2-2-2222-2-2-2222-7-7------7-7------5-5------5-5------|
|-------------------------------------5-5-5555-5-5-5555-3-3-3333-3-3-3333-|
      ....     ....     ....     ....     ....     ....     ....     ....


GUITAR 1 (FOURTH TIME)
|-------------------------------------------------------------------------|
|-------------------------------------------------------------------------|
|-777777777-999999999-11-11-11-11-99999999999999999999-777777777-99999999-|
|-------------------------------------------------------------------------|
|-------------------------------------------------------------------------|
|-------------------------------------------------------------------------|

 GUITAR 2
|-------------------------------------------------------------------------|
|-------------------------------------------------------------------------|
|-------------------------------------------------------------------------|
|-4-4------4-4------4-4------4-4------------------------------------------|
|-2-2-2222-2-2-2222-2-2-2222-2-2-2222-7-7------7-7------5-5------7-7------|
|-------------------------------------5-5-5555-5-5-5555-3-3-3333-5-5-5555-|
      ....     ....     ....     ....     ....     ....     ....     ....



RIFF 1 AGAIN

GUITAR 1  X 4
|-------------------------------------------------------------------------|
|-------------------------------------------------------------------------|
|-4-4--467-7-764-4-4--467-9-764-4-4--467-7-764----------6---9---6-7-9-7-6-|
|----------------------------------------------7-7--7-9---7---7-----------|
|-------------------------------------------------------------------------|
|-------------------------------------------------------------------------|
|                                                                         |
|GUITAR 2                                                                 |
|-------------------------------------------------------------------------|
|-------------------------------------------------------------------------|
|-------------------------------------------------------------------------|
|-4-4--4---------4-4--4---------4-4--4------------------------------------|
|-2-2--2--5-5----2-2--2--5-4----2-2--2--5-5----7--------------------------|
|---------3-3------------3-2------------3-3----5--------------------------|



RIFF2

GUITAR 1 (FIRST TIME)
|-------------------------------------------------------------------------|
|-------------------------------------------------------------------------|
|-444444444-66666666-77777777-666666666666666666666666-777777777777777777-|
|-------------------------------------------------------------------------|
|-------------------------------------------------------------------------|
|-------------------------------------------------------------------------|

 GUITAR 2
|-------------------------------------------------------------------------|
|-------------------------------------------------------------------------|
|-------------------------------------------------------------------------|
|-4-4------4-4------4-4------4-4------------------------------------------|
|-2-2-2222-2-2-2222-2-2-2222-2-2-2222-7-7------7-7------5-5------5-5------|
|-------------------------------------5-5-5555-5-5-5555-3-3-3333-3-3-3333-|
      ....     ....     ....     ....     ....     ....     ....     ....



GUITAR 1 (SECOND TIME)
|-------------------------------------------------------------------------|
|-------------------------------------------------------------------------|
|-444444444-66666666-77777777-666666666666666666666666-777777777-99999999-|
|-------------------------------------------------------------------------|
|-------------------------------------------------------------------------|
|-------------------------------------------------------------------------|

 GUITAR 2
|-------------------------------------------------------------------------|
|-------------------------------------------------------------------------|
|-------------------------------------------------------------------------|
|-4-4------4-4------4-4------4-4------------------------------------------|
|-2-2-2222-2-2-2222-2-2-2222-2-2-2222-7-7------7-7------5-5------7-7------|
|-------------------------------------5-5-5555-5-5-5555-3-3-3333-5-5-5555-|
      ....     ....     ....     ....     ....     ....     ....     ....



GUITAR 1 (THIRD TIME)
|-------------------------------------------------------------------------|
|-------------------------------------------------------------------------|
|-777777777-999999999-11-11-11-11-99999999999999999999-777777777777777777-|
|-------------------------------------------------------------------------|
|-------------------------------------------------------------------------|
|-------------------------------------------------------------------------|

 GUITAR 2
|-------------------------------------------------------------------------|
|-------------------------------------------------------------------------|
|-------------------------------------------------------------------------|
|-4-4------4-4------4-4------4-4------------------------------------------|
|-2-2-2222-2-2-2222-2-2-2222-2-2-2222-7-7------7-7------5-5------5-5------|
|-------------------------------------5-5-5555-5-5-5555-3-3-3333-3-3-3333-|
      ....     ....     ....     ....     ....     ....     ....     ....


GUITAR 1 (FOURTH TIME)
|-------------------------------------------------------------------------|
|-------------------------------------------------------------------------|
|-777777777-999999999-11-11-11-11-99999999999999999999-777777777-99999999-|
|-------------------------------------------------------------------------|
|-------------------------------------------------------------------------|
|-------------------------------------------------------------------------|

 GUITAR 2
|-------------------------------------------------------------------------|
|-------------------------------------------------------------------------|
|-------------------------------------------------------------------------|
|-4-4------4-4------4-4------4-4------------------------------------------|
|-2-2-2222-2-2-2222-2-2-2222-2-2-2222-7-7------7-7------5-5------5-5------|
|-------------------------------------5-5-5555-5-5-5555-3-3-3333-3-3-3333-|
      ....     ....     ....     ....     ....     ....     ....     ....


RIFF 2.1

FILL
GUITAR 1
|-------------------------------------------------------------------|
|-------------------------------------------------------------------|
|-66666666666666666666666---11-11-11-11-11-11-11-11-11--------------|
|-------------------------------------------------------------------|
|-------------------------------------------------------------------|
|-------------------------------------------------------------------|

 GUITAR 2
|-------------------------------------------------------------------|
|-------------------------------------------------------------------|
|-------------------------------------------------------------------|
|-------------------------------------------------------------------|
|-4-4-4-4-4-4-4-4-4-4-4-4-4-4-4-4-4-4-4-4-4-4-4-4-4-4-4-------------|
|-2-2-2-2-2-2-2-2-2-2-2-2-2-2-2-2-2-2-2-2-2-2-2-2-2-2-2-------------|



RIFF 3 CHORUS

GUITAR 1 x 4 (fast)
|------------------------------------------------------------------------|
|------------------------------------------------------------------------|
|-764676467646-9999-119791197911979-12121212-976797679767-11111111-------|
|------------------------------------------------------------------------|
|------------------------------------------------------------------------|
|------------------------------------------------------------------------|

 GUITAR 2
|------------------------------------------------------------------------|
|------------------------------------------------------------------------|
|------------------------------------------------------------------------|
|-4-----------------7----------------------------------------------------|
|-2-----------------5------------------------7---------------------------|
|--------------------------------------------5---------------------------|



END 1 to RIFF 3 GUITAR 1
|-----------------------------|
|-----------------------------|
|-1111111-999-777-666-777-666-|
|-----------------------------|
|-----------------------------|
|-----------------------------|

 GUITAR 2
|-----------------------------|
|-----------------------------|
|-----------------------------|
|-----------------------------|
|-5---------------------------|
|-3---------------------------|




END 2 to RIFF 3 GUITAR 1
|--------------------------------------------|
|--------------------------------------------|
|-1111111-121212-141414-121212-111111-121212-|
|--------------------------------------------|
|--------------------------------------------|
|--------------------------------------------|

 GUITAR 2
|--------------------------------------------|
|--------------------------------------------|
|--------------------------------------------|
|--------------------------------------------|
|-2------------------------------------------|
|-0------------------------------------------|



RIFF 1 AGAIN

GUITAR 1  X 4
|-------------------------------------------------------------------------|
|-------------------------------------------------------------------------|
|-4-4--467-7-764-4-4--467-9-764-4-4--467-7-764----------6---9---6-7-9-7-6-|
|----------------------------------------------7-7--7-9---7---7-----------|
|-------------------------------------------------------------------------|
|-------------------------------------------------------------------------|
|                                                                         |
|GUITAR 2                                                                 |
|-------------------------------------------------------------------------|
|-------------------------------------------------------------------------|
|-------------------------------------------------------------------------|
|-4-4--4---------4-4--4---------4-4--4------------------------------------|
|-2-2--2--5-5----2-2--2--5-4----2-2--2--5-5----7--------------------------|
|---------3-3------------3-2------------3-3----5--------------------------|




RIFF2

GUITAR 1 (FIRST TIME)
|-------------------------------------------------------------------------|
|-------------------------------------------------------------------------|
|-444444444-66666666-77777777-666666666666666666666666-777777777777777777-|
|-------------------------------------------------------------------------|
|-------------------------------------------------------------------------|
|-------------------------------------------------------------------------|

 GUITAR 2
|-------------------------------------------------------------------------|
|-------------------------------------------------------------------------|
|-------------------------------------------------------------------------|
|-4-4------4-4------4-4------4-4------------------------------------------|
|-2-2-2222-2-2-2222-2-2-2222-2-2-2222-7-7------7-7------5-5------5-5------|
|-------------------------------------5-5-5555-5-5-5555-3-3-3333-3-3-3333-|
      ....     ....     ....     ....     ....     ....     ....     ....



GUITAR 1 (SECOND TIME)
|-------------------------------------------------------------------------|
|-------------------------------------------------------------------------|
|-444444444-66666666-77777777-666666666666666666666666-777777777-99999999-|
|-------------------------------------------------------------------------|
|-------------------------------------------------------------------------|
|-------------------------------------------------------------------------|

 GUITAR 2
|-------------------------------------------------------------------------|
|-------------------------------------------------------------------------|
|-------------------------------------------------------------------------|
|-4-4------4-4------4-4------4-4------------------------------------------|
|-2-2-2222-2-2-2222-2-2-2222-2-2-2222-7-7------7-7------5-5------7-7------|
|-------------------------------------5-5-5555-5-5-5555-3-3-3333-5-5-5555-|
      ....     ....     ....     ....     ....     ....     ....     ....



GUITAR 1 (THIRD TIME)
|-------------------------------------------------------------------------|
|-------------------------------------------------------------------------|
|-777777777-999999999-11-11-11-11-99999999999999999999-777777777777777777-|
|-------------------------------------------------------------------------|
|-------------------------------------------------------------------------|
|-------------------------------------------------------------------------|

 GUITAR 2
|-------------------------------------------------------------------------|
|-------------------------------------------------------------------------|
|-------------------------------------------------------------------------|
|-4-4------4-4------4-4------4-4------------------------------------------|
|-2-2-2222-2-2-2222-2-2-2222-2-2-2222-7-7------7-7------5-5------5-5------|
|-------------------------------------5-5-5555-5-5-5555-3-3-3333-3-3-3333-|
      ....     ....     ....     ....     ....     ....     ....     ....


GUITAR 1 (FOURTH TIME)
|-------------------------------------------------------------------------|
|-------------------------------------------------------------------------|
|-777777777-999999999-11-11-11-11-99999999999999999999-777777777-99999999-|
|-------------------------------------------------------------------------|
|-------------------------------------------------------------------------|
|-------------------------------------------------------------------------|

 GUITAR 2
|-------------------------------------------------------------------------|
|-------------------------------------------------------------------------|
|-------------------------------------------------------------------------|
|-4-4------4-4------4-4------4-4------------------------------------------|
|-2-2-2222-2-2-2222-2-2-2222-2-2-2222-7-7------7-7------5-5------5-5------|
|-------------------------------------5-5-5555-5-5-5555-3-3-3333-3-3-3333-|
      ....     ....     ....     ....     ....     ....     ....     ....


RIFF 2.1

FILL
GUITAR 1
|-------------------------------------------------------------------|
|-------------------------------------------------------------------|
|-66666666666666666666666---11-11-11-11-11-11-11-11-11--------------|
|-------------------------------------------------------------------|
|-------------------------------------------------------------------|
|-------------------------------------------------------------------|

 GUITAR 2
|-------------------------------------------------------------------|
|-------------------------------------------------------------------|
|-------------------------------------------------------------------|
|-------------------------------------------------------------------|
|-4-4-4-4-4-4-4-4-4-4-4-4-4-4-4-4-4-4-4-4-4-4-4-4-4-4-4-------------|
|-2-2-2-2-2-2-2-2-2-2-2-2-2-2-2-2-2-2-2-2-2-2-2-2-2-2-2-------------|



RIFF 3 CHORUS

GUITAR 1 x 4
|------------------------------------------------------------------------|
|------------------------------------------------------------------------|
|-764676467646-9999-119791197911979-12121212-976797679767-11111111-------|
|------------------------------------------------------------------------|
|------------------------------------------------------------------------|
|------------------------------------------------------------------------|

 GUITAR 2
|------------------------------------------------------------------------|
|------------------------------------------------------------------------|
|------------------------------------------------------------------------|
|-4-----------------7----------------------------------------------------|
|-2-----------------5------------------------7---------------------------|
|--------------------------------------------5---------------------------|



END 1 to RIFF 3 GUITAR 1
|-----------------------------|
|-----------------------------|
|-1111111-999-777-666-777-666-|
|-----------------------------|
|-----------------------------|
|-----------------------------|

 GUITAR 2
|-----------------------------|
|-----------------------------|
|-----------------------------|
|-----------------------------|
|-5---------------------------|
|-3---------------------------|




END 2 to RIFF 3 GUITAR 1
|--------------------------------------------|
|--------------------------------------------|
|-1111111-121212-141414-121212-111111-121212-|
|--------------------------------------------|
|--------------------------------------------|
|--------------------------------------------|

 GUITAR 2
|--------------------------------------------|
|--------------------------------------------|
|--------------------------------------------|
|--------------------------------------------|
|-2------------------------------------------|
|-0------------------------------------------|



RIFF 2.1

FILL 1
GUITAR 1
|-------------------------------------------------------------------|
|-------------------------------------------------------------------|
|-66666666666666666666666---11-11-11-11-11-11-11-11-11--------------|
|-------------------------------------------------------------------|
|-------------------------------------------------------------------|
|-------------------------------------------------------------------|

 GUITAR 2
|-------------------------------------------------------------------|
|-------------------------------------------------------------------|
|-------------------------------------------------------------------|
|-------------------------------------------------------------------|
|-4-4-4-4-4-4-4-4-4-4-4-4-4-4-4-4-4-4-4-4-4-4-4-4-4-4-4-------------|
|-2-2-2-2-2-2-2-2-2-2-2-2-2-2-2-2-2-2-2-2-2-2-2-2-2-2-2-------------|



FILL 2 BEFORE OUTRO (SECOND GUITAR PLAYS THIS WITH RYTHM IN OUTRO)

|-------------------------------------------------------------------|
|-------------------------------------------------------------------|
|-------------------------------------------------------------------|
|-------------------------------------------------------------------|
|-9-------------7------------5------------7-------------9-----------|
|-7-------------5------------3------------5-------------7-----------|


OUTRO  GUITAR 1 (FIRST TIME)

|-------------------------------------------------------------------|
|-------------------------------------------------------------------|
|-7----6----777-----6----7-6----4----666-----4----6-4----2----4-6---|
|-9-99-9-99-999-999-9-99-9-7-77-7-77-777-777-7-77-7-5-55-5-55-5-7---|
|-------------------------------------------------------------------|
|-------------------------------------------------------------------|

|-------------------------------------------------------------------|
|-------------------------------------------------------------------|
|----4----6-7----7----7--7/6-6/4-4/6-6/7----------------------------|
|-77-7-77-7-9-99-9-99-9---------------------------------------------|
|-------------------------------------------------------------------|
|-------------------------------------------------------------------|


OUTRO GUITAR 1 (SECOND TIME)

|-------------------------------------------------------------------|
|-------------------------------------------------------------------|
|-7----6----777-----6----7-6----4----666-----4----6-4----2----4-6---|
|-9-99-9-99-999-999-9-99-9-7-77-7-77-777-777-7-77-7-5-55-5-55-5-7---|
|-------------------------------------------------------------------|
|-------------------------------------------------------------------|

|-------------------------------------------------------------------|
|-------------------------------------------------------------------|
|----4----6---------------------------------------------------------|
|-77-7-77-7---------------------------------------------------------|
|------------9------------------------------------------------------|
|------------7------------------------------------------------------|


END

  Visit MetalTabs.com for more metal tablature

bottom separator

Contact Us | Privacy Policy | Disclaimer | Legal Notice
Copyright © 2001-2014 MetalTabs.com. All Rights Reserved.