top separator

Home

Forum

What's New

Submit a Tab

FAQ

Links

Contact Us

Link to Us

MetalTabs.com logo

Bands

0-9

A

B

C

D

E

F

G

H

I

J

K

L

M

N

O

P

Q

R

S

T

U

V

W

X

Y

Z

Search

What

Where
 

Darkthrone - "Sin Origin" Guitar Tab

Plain Text Version
More Darkthrone Tabs

Hits: 4237
Rated: 5.00 out of 5 (2 votes)
Updated: 2005-04-07 15:19:59

 

By:

bleach

sendpm.gif

email.gif

Important note
This tab is available online because we obtained explicit permission from Darkthrone or their label.


#----------------------------------PLEASE NOTE---------------------------------#
#This file is the author's own work and represents their interpretation of the #
#song. You may only use this file for private study, scholarship, or research. #
#Unless specified otherwise, this is NOT an official tab from the band members.#
#------------------------------------------------------------------------------#

  Visit MetalTabs.com for more metal tablature
  
BAND:DARKTHRONE
ALBUM:PLAGUEWIELDER
SONG:SIN ORIGIN
COPYRIGHT:(C)MOONFOG PRODUCTIONS
TRANSCRIBED:BLEACH
E-MAIL:bleach@eastlink.ca

\-slide down
/-slide up
h-hammer on
*=comment

standard: EADGBE


|--------------------------------------------------------------|    11     10
|--------------------------------------------------------------|    11 AND 10
|--------------------------------------------------------------| *= 9      8
|--7--8--5--8--7--8--99999999--7--8--5--8--7--8--****--**--*9--|
|--7--8--5--8--7--8--99999999--7--8--5--8--7--8--****--**--*9--|
|--5--6--3--6--5--6--77777777--5--6--3--6--5--6--9999--98--87--|


|--------------------------------------------------------------|
|--------------------------------------------------------------|
|--------------------------------------------------------------|
|--7--8--5--8--7--8--99999999--7--8--5--8--7--8--22222222------|
|--7--8--5--8--7--8--99999999--7--8--5--8--7--8--22222222------|
|--5--6--3--6--5--6--77777777--5--6--3--6--5--6--00000000------|



|--------------------------------------------------------------|
|--------------------------------------------------------------|   11     10
|--------------------------------------------------------------| * 11 AND 10
|--7--8--5--8--7--8--99999999--7--8--5--8--7--8--****--**--*9--|    9      8
|--7--8--5--8--7--8--99999999--7--8--5--8--7--8--****--**--*9--|
|--5--6--3--6--5--6--77777777--5--6--3--6--5--6--9999--98--87--|

|------------------------------------------------|----------------|
|------------------------------------------------|----------------|
|------------------------------------------------|----------------|
|--7--8--5--8--7--8--99999999--7--8--5--8--7--8--|--2-------------|
|--7--8--5--8--7--8--99999999--7--8--5--8--7--8--|--2--LET RING---|
|--5--6--3--6--5--6--77777777--5--6--3--6--5--6--|--0-------------|


|---------------------------------------------------|
|---------------------------------------------------|
|------------------1--------------------------------|
|--2222222222222-----2-----99999999--88888--5--5/7--|
|--2222222222222-------2---99999999--88888--5--5/7--|
|--0000000000000-----------77777777--66666--3--3/5--|


|----------------------------------------------------------------|
|----------------------------------------------------------------|
|-----3--3-------------------------------3--3--------------------|
|--2--3--3--2---2---5/6----6----6\5---2--3--3--2---2---5/6----6--|
|--2--1--1--2---2---5/6----6----6\5---2--1--1--2---2---5/6----6--|
|--0--------0---0---3/4----4----4\3---0--------0---0---3/4----4--|


|-------------------------------------------------------------------|
|-------------------------------------------------------------------|
|-----3--3-------------------------------3--3----------5\4--3--3\4--|
|--2--3--3--2---2---5/6----6----6\5---2--3--3--2---2---4\3--2--2\3--|
|--2--1--1--2---2---5/6----6----6\5---2--1--1--2---2---3\2--1--1\2--|
|--0--------0---0---3/4----4----4\3---0--------0---0----------------|


ENDING

|--------------------------------------------------------------------|
|--------------------------------------------------------------------|
|--------------------------------------------------------------------|
|--2---------3----------0----------3----------------0----------------|
|--2-------2----------2----------2----------------2------------------|
|--0-----------0----------1----------0---------1---------------------|

  Visit MetalTabs.com for more metal tablature

bottom separator

Contact Us | Privacy Policy | Disclaimer | Legal Notice
Copyright © 2001-2014 MetalTabs.com. All Rights Reserved.