top separator

Home

Forum

What's New

Submit a Tab

FAQ

Links

Contact Us

Link to Us

MuSpy.com

MetalTabs.com logo

Bands

0-9

A

B

C

D

E

F

G

H

I

J

K

L

M

N

O

P

Q

R

S

T

U

V

W

X

Y

Z

Search

What

Where
 

Cephalic Carnage - "Kill for Weed" Guitar Tab

Plain Text Version
More Cephalic Carnage Tabs

Hits: 5819
Rated: 4.00 out of 5 (5 votes)
Updated: 2009-04-13 05:20:15

 

By:

Father Death

sendpm.gif

email.gif

Important note
This tab is available online because we obtained explicit permission from Cephalic Carnage or their label.


#----------------------------------PLEASE NOTE---------------------------------#
#This file is the author's own work and represents their interpretation of the #
#song. You may only use this file for private study, scholarship, or research. #
#Unless specified otherwise, this is NOT an official tab from the band members.#
#------------------------------------------------------------------------------#

  Visit MetalTabs.com for more metal tablature
  
Band:  CEPHALIC CARNAGE
Album: Anomalies
Song:  Kill For Weed

Transcribed by: Chris Humeniuk
Email: father_death_666@hotmail.com
Updated: 4/5/9

Tuning: 2.5 steps down (B)

Keys:
 ___ - palm mute
  "  - tremelo
 < > - pinch harmonic
  b  - bend
  r  - release bend
  h  - hammer on
  p  - pull off
 { } - natural harmonic
  x  - mute


INTRO: (Gtr 1 & 2)

|-------------------------------------------|
|-------------------------------------------|
|-------------------------------------------|
|-6----3--------------6----3----------------|
|-6----3----2"--------6----3----3"--2"------|
|-4----1--------------4----1----------------| 2x
  _________           _________


RIFF A:
(Gtr 1)
|------------------------------------------------------------|
|------------------------------------------------------------|
|-----------<5>--------------------------<5>-----------------|
|-----<5>br-------------4----------<5>br-------------5--4----|
|-4-6-----------<3>-----2------4-6-----------<3>-----3--2----|
|-4-4---------------3-1--------4-4---------------3-1---------|
  ___               ___        ___               ___

(Gtr 2)
|------------------------------------------------|
|------------------------------------------------|
|---------5----------------------5---------------|
|-----5-----5---5-4----------5-----5---5-5--4----|
|-4-6---3-----3----------4-6---3-----3-----------|
|-4-4--------------------4-4---------------------| 2x
  ___                    ___


RIFF B: (Gtr 1 & 2)

|---------------------------------------------------------------
|---------------------------------------------------------------
|---------------------------------------------------------------
|-6----3------------------6----3--------------------------------
|-6----3----2h3p2h3p2...--6----3----3h4p3h4p3h4p3-2h3p2h3p2...--
|-4----1------------------4----1--------------------------------

 ---------------------------------------------------------------|
 ---------------------------------------------------------------|
 ---------------------------------------------------------------|
 -6----3------------------6----3--------------------------------|
 -6----3----2h5p2h5p2...--6----3----3h6p3h6p3h6p3-2h5p2h5p2...--|
 -4----1------------------4----1--------------------------------|


GRIND AWAY:
(Gtr 1)
|-------------------------
|-------------------------
|-------------------------
|-----4-----4-----4-----4-
|-6-4-2-6-4-2-6-4-2-6-4-2-
|-4-2---4-2---4-2---4-2---
              ___   ___

(Gtr 2)
|-------------------------
|-------------------------
|-------------------------
|-----------------4-----4-
|-------------6-4-2-6-4-2-
|-------------4-2---4-2---
              ___   ___

(Gtr 1 & 2)
 ---------------------------------------------------------------------
 ---------------------------------------------------------------------
 ---------------------------------------------------------------------
 -------4"-------4"-------4"-------4"---------------------------------
 -6"-4"-2"-6"-4"-2"-6"-4"-2"-6"-4"-2"---------------------------------
 -4"-2"----4"-2"----4"-2"----4"-2"----3-3-432-3-3-432-3-3-432-3-3-432-

 -----------------------------------------------------------------------|
 -----------------------------------------------------------------------|
 -----------------------------------------------------------------------|
 -------4"-------4"-------4"-------4"-----------------------------------|
 -6"-4"-2"-6"-4"-2"-6"-4"-2"-6"-4"-2"---------------------------------5-|
 -4"-2"----4"-2"----4"-2"----4"-2"----3-3-432-3-3-432-3-3-432-3-3-432-3-|


***DRUM FILL***


RIFF C:
(Gtr 1 & 2)
|---------------------------------------------|     |-------------------------|
|-------------{5}-----------------------------|     |---------{5}-------------|
|-------------------------------10\8-8/9-9/10-|     |-------------------------|
|--------------------------------x---x---x----|     |-------------------------|
|-6-6-765-2---------6-6-765-2----8\6-6/7-7/-8-|     |-6-6-765-----------------|
|-4-4-543-0---------4-4-543-0-----------------| 4x  |-4-4-543-----------------|
      ___               ___                               ___


OUTRO:
(Gtr 1)
|-------------------------
|-------------------------
|-------------------------
|-----4-----4-----4-----4-
|-6-4-2-6-4-2-6-4-2-6-4-2-
|-4-2---4-2---4-2---4-2---
              ___   ___

(Gtr 2)
|-------------------------
|-------------------------
|-------------------------
|-----------------4-----4-
|-------------6-4-2-6-4-2-
|-------------4-2---4-2---
              ___   ___

(Gtr 1 & 2)
 -----------------------------------------------------------------------|
 -----------------------------------------------------------------------|
 -----------------------------------------------------------------------|
 -------4"-------4"-------4"-------4"-----------------------------------|
 -6"-4"-2"-6"-4"-2"-6"-4"-2"-6"-4"-2"---------------------------------5-|
 -4"-2"----4"-2"----4"-2"----4"-2"----3-3-432-3-3-432-3-3-432-3-3-432-3-|

  Visit MetalTabs.com for more metal tablature

bottom separator

Contact Us | Privacy Policy | Disclaimer | Legal Notice
Copyright © 2001-2014 MetalTabs.com. All Rights Reserved.