top separator

Home

Forum

What's New

Submit a Tab

FAQ

Links

Contact Us

Link to Us

MetalTabs.com logo

Bands

0-9

A

B

C

D

E

F

G

H

I

J

K

L

M

N

O

P

Q

R

S

T

U

V

W

X

Y

Z

Search

What

Where
 

Primordial - "Dark Song" Guitar Tab

Plain Text Version
More Primordial Tabs

Hits: 4077
Rated: 1.50 out of 5 (6 votes)
Updated: 2005-04-14 14:44:56

 

By:

sendpm.gif

email.gif

Important note
This tab is available online because we obtained explicit permission from Primordial or their label.


#----------------------------------PLEASE NOTE---------------------------------#
#This file is the author's own work and represents their interpretation of the #
#song. You may only use this file for private study, scholarship, or research. #
#Unless specified otherwise, this is NOT an official tab from the band members.#
#------------------------------------------------------------------------------#

  Visit MetalTabs.com for more metal tablature
  
Band:  Primordial
Album: A journey's end
Song:  Dark song

Copyright (c)  Misanthropy Records 1998

Transcribed By: Dima Halfer
Email:          distorus@yahoo.com

It might be a little bit incorrect, but sounds fine
arp. = arpeggio

Intro(repeat 4 times):              arp.
|-----10------|-----8-----|----5----|0/1-1-1-1-1-0---|
|---10--------|---10------|-6-6-6---|3-------------3-|
|-10----------|-10--------|7-7---7--|2---------------|
|0------------|0----------|0------0-|3---------------|
|-------------|-----------|---------|0---------------|
|-------------|-----------|---------|----------------|

AfterIntro:
arp.           arp.
|0-0-0-0-0-----|------------|
|3---------3-2-|3-----------|
|2-------------|2-----------|
|3-------------|3-----------|
|0-------------|0-----------|
|--------------|------------|

Riff One(no words)
|---------------|---------------|---------------|---------------|
|---------------|---------------|---------------|---------------|
|7-7-7-3-3-3-3-3|5-5-5-2-2-2-2-2|7-7-7-3-3-3-3-3|5-5-5-2-2-2-2-2|
|7-7-7-3-3-3-3-3|5-5-5-2-2-2-2-2|7-7-7-3-3-3-3-3|5-5-5-2-2-2-2-2|
|5-5-5-1-1-1-1-1|3-3-3-0-0-0-0-0|5-5-5-1-1-1-1-1|3-3-3-0-0-0-0-0|
|5-5-5-1-1-1-1-1|3-3-3-0-0-0-0-0|5-5-5-1-1-1-1-1|3-3-3-0-0-0-0-0|

Riff A(after playing it once words start)=Verse
|---------------|--------------------|---------------|---------------|
|---------------|--------------------|---------------|---------------|
|7-7-7-7-7-7-7-7|10-10-9-9-9-10-10-10|7-7-7-7-7-7-7-7|14-14-12-12-12-10-10-10|
|7-7-7-7-7-7-7-7|10-10-9-9-9-10-10-10|7-7-7-7-7-7-7-7|14-14-12-12-12-10-10-10|
|5-5-5-5-5-5-5-5|8--8--7-7-7-8--8--8-|5-5-5-5-5-5-5-5|12-12-10-10-10-8--8--8-|
|5-5-5-5-5-5-5-5|8--8--7-7-7-8--8--8-|5-5-5-5-5-5-5-5|12-12-10-10-10-8--8--8-|

|---------------|--------------------|---------------|---------------|
|---------------|--------------------|---------------|---------------|
|7-7-7-7-7-7-7-7|10-10-9-9-9-10-10-10|7-7-7-7-7-7-7-7|3-3-5-5-5-2-2-2|
|7-7-7-7-7-7-7-7|10-10-9-9-9-10-10-10|7-7-7-7-7-7-7-7|3-3-5-5-5-2-2-2|
|5-5-5-5-5-5-5-5|8--8--7-7-7-8--8--8-|5-5-5-5-5-5-5-5|1-1-3-3-3-0-0-0|
|5-5-5-5-5-5-5-5|8--8--7-7-7-8--8--8-|5-5-5-5-5-5-5-5|1-1-3-3-3-0-0-0|

4xRiff B (just once in this song after first Verse)
|-----------------------|-----------------------|
|-----------------------|-----------------------|
|14-14-15-15-15-15-15-15|12-12-14-14-14-14-14-14|
|14-14-15-15-15-15-15-15|12-12-14-14-14-14-14-14|
|12-12-13-13-13-13-13-13|10-10-12-12-12-12-12-12|
|12-12-13-13-13-13-13-13|10-10-12-12-12-12-12-12|

|-----------------------|------------------|
|-----------------------|------------------|
|10-10-12-12-12-12-12-12|9-9-10-10-10-7-7-7|
|10-10-12-12-12-12-12-12|9-9-10-10-10-7-7-7|
|8--8--10-10-10-10-10-10|7-7-8--8--8--5-5-5|
|8--8--10-10-10-10-10-10|7-7-8--8--8--5-5-5|

Riff C = Refren
|---------------|---------------|---------------|---------------|
|---------------|---------------|---------------|---------------|
|7-7-7-7-7-7-7-7|5-5-5-5-5-5-5-5|3-3-3-3-3-3-3-3|3-3-3-3-3-3-3-3|
|7-7-7-7-7-7-7-7|5-5-5-5-5-5-5-5|3-3-3-3-3-3-3-3|3-3-3-3-3-3-3-3|
|5-5-5-5-5-5-5-5|3-3-3-3-3-3-3-3|1-1-1-1-1-1-1-1|1-1-1-1-1-1-1-1|
|5-5-5-5-5-5-5-5|3-3-3-3-3-3-3-3|1-1-1-1-1-1-1-1|1-1-1-1-1-1-1-1|

Then Verse again, Refren and end with...
|---------------|
|---------------|
|7--------------|
|7--------------|
|5--------------|
|5--------------|

  Visit MetalTabs.com for more metal tablature

bottom separator

Contact Us | Privacy Policy | Disclaimer | Legal Notice
Copyright © 2001-2014 MetalTabs.com. All Rights Reserved.