top separator

Home

Forum

FAQ

Contact Us

Link to Us

MetalTabs.com logo

Bands

0-9

A

B

C

D

E

F

G

H

I

J

K

L

M

N

O

P

Q

R

S

T

U

V

W

X

Y

Z

Carpathian Forest - "The Woods of Wallachia" Guitar Tab

Plain Text Version
More Carpathian Forest Tabs

Hits: 2607
Rated: 5.00 out of 5 (1 vote)
Updated: 2005-04-07 14:39:57

By:

Corpsevomit98


#----------------------------------PLEASE NOTE---------------------------------#
#This file is the author's own work and represents their interpretation of the #
#song. You may only use this file for private study, scholarship, or research. #
#Unless specified otherwise, this is NOT an official tab from the band members.#
#------------------------------------------------------------------------------#

  Visit MetalTabs.com for more metal tablature
  
Band:  Carpathian Forest
Album: Bloodlust and Perversion Demo
       Re-released on Bloodlust and Perversion LP
       Re-released on Skjend Hans Lik
Song:  The Woods of Wallachia

Copyright  2004 Seasons of Mist
Copyright  1997 Nyx

Transcribed By: John
Email:          Corpsevomit98@hotmail.com

Tuning (Standard) (EADGBE)

Guitar 1 - .1
Guitar 2 - .2

A.1
|-------0-------0-------0-------0-------0-------0-------0-------0-|
|-----0-------0-------0-------0-------0-------0-------0-------0---|
|---6-------6-------6-------6-------5-------5-------5-------5-----|
|-7-------7-------7-------7-------6-------6-------6-------6-------|
|-----------------------------------------------------------------|
|-----------------------------------------------------------------|

B.1
|-------0-------0-------0---------------0-------0-------0-----|
|-----0-------0-------0-------0-------0-------0-------0---(0)-|
|---6-------6-------6-------6-------5-------5-------5------5--|
|-7-------7-------7-------7-----6-6-------6-------6-----------|
|-------------------------------------------------------------|
|-------------------------------------------------------------|

Note in parenthesis played second and third times instead of the 5.

C.1
|-------0-------0-------0-------0-------0-------0-------0-------0-|
|-----0-------0-------0-------0-------0-------0-------0-------0---|
|---2-------2-------2-------2-------1-------1-------1-------1-----|
|-3-------3-------3-------3-------2-------2-------2-------2-------|
|-----------------------------------------------------------------|
|-----------------------------------------------------------------|

D.1                                                           3rd time
|-------0-------0-------0-------(0)-------0-------0-------0---|-------|
|-----0-------0-------0-------0---------0-------0-------0---0-|-------|
|---2-------2-------2-------2---------1-------1-------1-------|-1-----|
|-3-------3-------3-------3------2--2-------2-------2---------|-----2-|
|-------------------------------------------------------------|-------|
|-------------------------------------------------------------|-------|

Note in parenthesis played third time instead of the 2.

A.1
B.1 (With alteration)
C.1
D.1
A.1
B.1 (with alteration)
c.1
D.1 (with alteration)

E.1
|-------0---------------0---------------0---------------0---------|
|-----0---0-----------0---0-----------0---0-----------0---0-------|
|---6-------0---6---5-------5---5---6-------6---6---5-------5---5-|
|-7-----------7---6-----------6---7-----------7---6-----------6---|
|-----------------------------------------------------------------|
|-----------------------------------------------------------------|

F.1
|-------0---------------0---------------0---------------0---------|
|-----0---0-----------0---0-----------0---0-----------0---0-------|
|---2-------2---2---1-------1---1---2-------2---2---1-------1---1-|
|-3-----------3---2-----------2---3-----------3---2-----------2---|
|-----------------------------------------------------------------|
|-----------------------------------------------------------------|

E.1
F.1

G.1
|-------------------------------|
|-5-5-5-5-5-5-5-5-5-5-5-8-7-8-7-|
|-------------------------------|   2x
|-------------------------------|
|-------------------------------|
|-------------------------------|

H.1
|---------------------------------------|
|-12-12-12-12-10-10-10-10-8-8-8-8-7-8-7-|
|---------------------------------------|   2x
|---------------------------------------|
|---------------------------------------|
|---------------------------------------|

G.2 and H.2
|---------------------------------------|
|---------------------------------------|
|---------------------------------------|
|---------------------------------------|
|---------------------------------------|
|-12----------10----------8-------7-8-7-|
I don't know if this is a synth or guitar.

G.1 2x
H.1 2x
G.1
H.1

I.1
|---|
|-5-|
|---|
|---|
|---|
|---|

I.2
|----|
|----|
|----|
|----|
|----|
|-12-|

  Visit MetalTabs.com for more metal tablature

bottom separator

Contact Us | Privacy Policy | Disclaimer
Copyright © 2001-2014 MetalTabs.com. All Rights Reserved.