top separator

Home

Forum

What's New

Submit a Tab

FAQ

Links

Contact Us

Link to Us

MetalTabs.com logo

Bands

0-9

A

B

C

D

E

F

G

H

I

J

K

L

M

N

O

P

Q

R

S

T

U

V

W

X

Y

Z

Search

What

Where
 

Tirant Sin - "Desecration of the Grave" Guitar Tab

Plain Text Version
More Tirant Sin Tabs

Hits: 2285
Updated: 2005-04-03 13:01:18

 

By:

sendpm.gif

email.gif

Important note
We did our best to reach Tirant Sin and ask for their permission to publish this tab. Unfortunately they did not respond to our requests or we could not find a way to contact them. This tab is available online until Tirant Sin tells us to take it down.


#----------------------------------PLEASE NOTE---------------------------------#
#This file is the author's own work and represents their interpretation of the #
#song. You may only use this file for private study, scholarship, or research. #
#Unless specified otherwise, this is NOT an official tab from the band members.#
#------------------------------------------------------------------------------#

  Visit MetalTabs.com for more metal tablature
  
Band: Tyrant sin
Album: Desecration of the grave-demo 1987
Song: Desecration of the grave (second track)
Hi , here for you guys , there is the small riff of guitars turned in D flat
, of "desecration of the grave " ,
second track of four in the demotape of Tyrant sin , 1987 , new york.
Notes:
(notation (") with a number wants to play 4 time
repetidly the same number quickly)
Copyright (c) (1987)
Version 1.0 - 1987

Transcribed By: Necrologistis XIV
Email: vatalan@hotmail.com


. - palm mute / - slide up to
\ - slide down to ~ - vibrato
h - hammer on b - Bend
p - pull off Suffixes for bend
t - tap f - full bend h - half bend
ph - pinched harmonic q - quarter bend t - tap bend
* - see comment ^ - Hold bend r release bend
x - Stuccatto ~ - vibrato bend
, - slight palm mute () - ghost note, sustained note
" - tremolo note <> - Trill

Tuning D

Begining ...and so on ...(riff 1)
----=----------------------------------------------------------------
----=----------------------------------------------------------------
-4--=----------------------------------------------------------------
-4--=--------------3-2-------------3-0-------------3-0---------------
----=-3-0-2-0-3-0------3-0-2-0-3-0-----3-0-2-0-3-0-------------------
----=----------------------------------------------------------------

Then play four times)(riff2)

----=----------------------------------------------------------------
----=----------------------------------------------------------------
-4--=------------------3"-0"-------------------3"-0"-----------------
-4--=-3"-0"-2"-0"-3"-0"------3"-0"-2"-0"-3"-0"------3"-0"-2"-0"-3"-0"-
----=----------------------------------------------------------------
----=----------------------------------------------------------------


For the back-one guitar (second part) during riff 1 and 2

---=------------------------------------------------------------------
---=------------------------------------------------------------------
-4-=--5-----4----2----------------------------------------------------
-4-=--5-----4----0-----and so on in same time with guitar part 1------
---=--3-----2---------------------------------------------------------
---=------------------------------------------------------------------

Chris branes says "argg arg" at 1'10 minute from the beggining and
the last riff :

riff 3
----=------------------------------------------------------------------
----=------------------------------5-------------------------5---------
-2--=---------3-0-2-----------3-4-------------3-0-2--------4---3-2-----
-2--=------------------------------------------------------------------
----=-0-0-0-0--------0-0-0-0---------0-0-0-(0)------0-0-0-0------------
----=------------------------------------------------------------------

Solo so quick i donsn't took it my apologises for fans.
Unfortunatly , we aren't able to hear corectly Paul (mazurkzewik)
at drum , 'cause it s crushes.Damn.
For metaltabs , this is cruely unofficial !!!


Enjoy it
Necrologistis XIV
vatalan@hotmail.com

  Visit MetalTabs.com for more metal tablature

bottom separator

Contact Us | Privacy Policy | Disclaimer | Legal Notice
Copyright © 2001-2014 MetalTabs.com. All Rights Reserved.