top separator

Home

Forum

What's New

Submit a Tab

FAQ

Links

Contact Us

Link to Us

MetalTabs.com logo

Bands

0-9

A

B

C

D

E

F

G

H

I

J

K

L

M

N

O

P

Q

R

S

T

U

V

W

X

Y

Z

Search

What

Where
 

Mourning Beloveth - "Narcissistic Funeral" Guitar Tab

Plain Text Version
More Mourning Beloveth Tabs

Hits: 3466
Rated: 5.00 out of 5 (14 votes)
Updated: 2006-11-27 05:42:37

 

By:

Paddy

sendpm.gif

email.gif

Important note
This tab is available online because we obtained explicit permission from Mourning Beloveth or their label.


#----------------------------------PLEASE NOTE---------------------------------#
#This file is the author's own work and represents their interpretation of the #
#song. You may only use this file for private study, scholarship, or research. #
#Unless specified otherwise, this is NOT an official tab from the band members.#
#------------------------------------------------------------------------------#

  Visit MetalTabs.com for more metal tablature
  
================================================================================
                        M O U R N I N G   B E L O V E T H

                                       -

                     N A R C I S S I S T I C   F U N E R A L
================================================================================


                                THE SULLEN SULCUS
                           (c) Sentinel Records - 2002
                        http://www.mourningbeloveth.com/


                              Tune Down 1 & 1/2 Steps
                                  C# F# B E G# C#

                                  Tempo = 70 BPM
                               Time Signature = 3/4



                          -----------------------------
                                 Transcribed by

                                 PADDY MCMULLAN
                           stinkypoohpants@yahoo.co.uk

                                   Version 1.9
                      (Corrections Outlined at Bottom of Tab)
                             -----------------------

                             Tablature Symbols Used:


 P.M...    -  Palm Mute
 ~~        -  Vibrato
 p         -  Pull-Off
 h         -  Hammer-On
 (/)       -  Legato Slide (Blank space indicates length of slide)
 \         -  Slide Down to/Down From (Blank space indicates length of slide)
 /         -  Slide Up To/Up From (Blank space indicates length of slide)
 ( )       -  Ghost Note/Tied Note/Implied Note
 |__3__|   -  Triplet Notes



================================================================================
Intro: Guitar 3 with clean tone (Play twice)
================================================================================


*Let notes ring wherever possible*

||------------------|--------------------|----------------|----------------| |
||-----------0------|-----------0--------|----------------|----------------| |
||------------------|--------------------|----------------|----------------|*|
||--------5---------|--------5------(5)\-|---------2------|---------4------|*|
||-----7------------|-----7--------------|--3-------------|--2-------------| |
||--0---------------|--0-----------------|----------------|----------------| |



================================================================================
Riff 1a: Guitar 1 with heavy distortion (Play once through)
================================================================================


  1                    2                    3               4
||--------------------|--------------------|---------------|-------------------|
||--------------------|--------------------|---------------|-------------------|
||--------------------|--------------------|---------------|-------------------|
||--------(5/ 9)------|--------(5/ 9)------|---------------|-------------------|
||-----7--------------|-----7--------------|---------------|----------/7----7--|
||--0-----------------|--0-----------------|--8------------|--(8)--------------|
   P.M                  ...

 5                    6                    7               8
|--------------------|--------------------|---------------|----------------|
|--------------------|--------------------|---------------|----------------|
|--------------------|--------------------|---------------|----------------|
|--------(5/ 9)------|--------(5/ 9)------|---------------|----------------|
|-----7--------------|-----7--------------|--7------------|-----9----------|
|--0-----------------|--0-----------------|--8------------|--7-------------|
  ...                  ...

 9                    10                   11              12
|--------------------|--------------------|---------------|-------------------|
|--------------------|--------------------|---------------|-------------------|
|--------------------|--------------------|---------------|-------------------|
|--------(5/ 9)------|--------(5/ 9)------|---------------|-------------------|
|-----7--------------|-----7--------------|---------------|----------/7----7--|
|--0-----------------|--0-----------------|--8------------|--(8)--------------|
  P.M                  ...

 13                   14                   15              16
|--------------------|--------------------|---------------|----------------|
|--------------------|--------------------|---------------|----------------|
|--------------------|--------------------|---------------|----------------|
|--------(5/ 9)------|--------(5/ 9)------|---------------|----------------|
|-----7--------------|-----7--------------|--7------------|-----9----------|
|--0-----------------|--0-----------------|--8------------|--7-------------|
  ...                  ...

 17                   18                   19             20
|--------------------|--------------------|--------------|--------------------|
|--------------------|--------------------|--------------|--------------------|
|--------------------|--------------------|--------------|--------------------|
|--------(5/ 9)------|--------(5/ 9)------|--------------|-----------7--5--4--|
|-----7--------------|-----7--------------|--------7-----|-----9--------------|
|--0-----------------|--0-----------------|--8-----------|--7-----7-----------|
  ...                  ...

 21                   22                   23               24
|--------------------|--------------------|----------------|------------------|
|--------------------|--------------------|----------------|------------------|
|--------------------|--------------------|----------------|------------------|
|--------(5/ 9)------|--------(5/ 9)------|----------------|---------7--5--4--|
|-----7--------------|-----7--------------|--10------------|--9---------------|
|--0-----------------|--0-----------------|--8-------------|--7---------------|
  ...                  ...

 25                   26                   27             28
|--------------------|--------------------|--------------|--------------------|
|--------------------|--------------------|--------------|--------------------|
|--------------------|--------------------|--------------|--------------------|
|--------(5/ 9)------|--------(5/ 9)------|--------------|-----------7--5--4--|
|-----7--------------|-----7--------------|--10----------|-----9--------------|
|--0-----------------|--0-----------------|--8-----------|--7-----7-----------|
  ...                  ...

 29                   30                   31               32
|--------------------|--------------------|----------------|------------------|
|--------------------|--------------------|----------------|------------------|
|--------------------|--------------------|----------------|------------------|
|--------(5/ 9)------|--------(5/ 9)------|----------------|---------7--5--4--|
|-----7--------------|-----7--------------|--10------------|--9---------------|
|--0-----------------|--0-----------------|--8-------------|--7---------------|
  ...                  ...

 33                   34                   35              36
|--------------------|--------------------|---------------|------------------|
|--------------------|--------------------|---------------|------------------|
|--------------------|--------------------|---------------|------------------|
|--------(5/ 9)------|--------(5/ 9)------|---------------|---------7--5--4--|
|-----7--------------|-----7--------------|--7------------|--9---------------|
|--0-----------------|--0-----------------|--8------------|--7---------------|
  ...                  ...

 37                   38                   39              40
|--------------------|--------------------|---------------|------------------||
|--------------------|--------------------|---------------|------------------||
|--------------------|--------------------|---------------|------------------||
|--------(5/ 9)------|--------(5/ 9)------|---------------|---------7--5--4--||
|-----7--------------|-----7--------------|--7------------|--9---------------||
|--0-----------------|--0-----------------|--8------------|--7---------------||
  ...                  ...



================================================================================
Riff 1b: Guitar 2 with heavy distortion (Play once through)
================================================================================


  1                2                   3               4
||----------------|-------------------|---------------|-------------------|
||----------------|-------------------|---------------|-------------------|
||----------------|-------------------|---------------|-------------------|
||--2----------2--|--2----------------|---------------|-------------------|
||--2----------2--|--2-----/10----10--|---------------|----------/7----7--|
||--0----------0--|--0----------------|--8------------|--(8)--------------|
              ...   ...

 5               6                   7               8
|---------------|-------------------|---------------|-------------------|
|---------------|-------------------|---------------|-------------------|
|---------------|-------------------|---------------|-------------------|
|---------------|-------------------|---------------|-------------------|
|---------------|----------/5----5--|--7~~----------|--9--------9-------|
|--7------------|--(7)--------------|---------------|-------------0-12\-|
                                                                ....
 9                10                  11              12
|----------------|-------------------|---------------|-------------------|
|----------------|-------------------|---------------|-------------------|
|----------------|-------------------|---------------|-------------------|
|--2----------2--|--2----------------|---------------|-------------------|
|--2----------2--|--2-----/10----10--|---------------|----------/7----7--|
|--0----------0--|--0----------------|--8------------|--(8)--------------|

 13              14                  15              16
|---------------|-------------------|---------------|-----------------|
|---------------|-------------------|---------------|-----------------|
|---------------|-------------------|---------------|-----------------|
|---------------|-------------------|---------------|-----------------|
|---------------|----------/5----5--|--7~~----------|--9--------------|
|--7------------|--(7)--------------|---------------|-------------12\ |

                                        // Let notes ring \\
 17                   18                 19                 20
|--------------------|------------------|------------------|-------------------|
|--------------------|------------------|------------------|-------------------|
|--------------------|------------------|----------0-------|-------------------|
|-----------5--------|--4----4--2----5--|-----2---------2--|-----4-----7--5--4-|
|-----2--------2-----|------------------|--3---------------|--2-----2----------|
|--0-----0--------0--|------------------|------------------|-------------------|

                                        // Let notes ring \\
 21                   22                 23
|--------------------|------------------|-------------------|
|--------------------|------------------|--------1----------|
|--------------------|------------------|-------------0-----|
|-----------5--------|--4----4--2----5--|-----2-------------|
|-----2--------2-----|------------------|--3-------------3--|
|--0-----0--------0--|------------------|-------------------|

 24                   25                   26
|--------------------|--------------------|------------------|
|--------------------|--------------------|------------------|
|--------------------|--------------------|------------------|
|-----4-----7--5-----|-----------5--------|--4----4--2----5--|
|--2-----2--------2--|-----2--------2-----|------------------|
|--------------------|--0-----0--------0--|------------------|

// Let notes ring \\
 27                  28                   29
|-------------------|--------------------|--------------------|
|-------------------|--------------------|--------------------|
|----------0------0-|--------------------|--------------------|
|-----2---------2---|-----4-----7--5--4--|-----------5--------|
|--3----------------|--2-----2-----------|-----2--------2-----|
|-------------------|--------------------|--0-----0--------0--|

                   // Let notes ring \\
 30                 31                  32
|------------------|-------------------|--------------------|
|------------------|--------1----------|-----------0--------|
|------------------|-------------0-----|--------------------|
|--4----4--2----5--|-----2-------------|-----4--------5--4--|
|------------------|--3-------------3--|--2-----2-----2-----|
|------------------|-------------------|--------------------|

                                        // Let notes ring \\
 33                   34                 35
|--------------------|------------------|-------------------|
|--------------------|------------------|-------------------|
|--------------------|------------------|----------0--------|
|-----------5--------|--4----4--2----5--|-----2-------2-----|
|-----2--------2-----|------------------|--3-------------3--|
|--0-----0--------0--|------------------|-------------------|

 36                   37                   38
|--------------------|--------------------|------------------|
|--------------------|--------------------|------------------|
|--------------------|--------------------|------------------|
|-----4-----7--5-----|-----------5--------|--4----4--2----5--|
|--2-----2--------2--|-----2--------2-----|------------------|
|--------------------|--0-----0--------0--|------------------|

// Let notes ring \\
 39                  40
|-------------------|--------------------||
|--------1----------|-----------0--------||
|-------------0-----|--------------------||
|-----2-------------|-----4--------4--4--||
|--3-------------3--|--2-----2-----2--2--||
|-------------------|--------------------||



================================================================================
Riff 2a: Guitar 1 (Play once through) [Tempo = 80 BPM]
================================================================================


  1                   2            3             4
||-------------------|------------|-------------|--------------------|
||-------------------|------------|-------------|--------------------|
||-------------------|------------|-------------|--------------------|
||-/9--10----7--9----|--5---------|--4----------|--------------------|
||--0--0-----0--0----|--7---------|--5----------|--3--3----2--2------|
||-------------------|------------|-------------|--5--5----3--3--0-0-|
                                                                 ...

                                         // Let notes ring \\
 5                    6                    7
|--------------------|--------------------|-----------------|
|--------------------|--------------------|-----------------|
|--------------------|--------------------|-----------------|
|--5--5----4--4------|--------------------|-----2-----------|
|--7--7----5--5------|--3--3--3--2--2-----|--3---------3----|
|----------------0-0-|--5--5--5--3--3--0--|-----------------|
          ...    ...            ...

//          Let notes ring           \\
 8                9                    10            11
|----------------|--------------------|-------------|-------------------|
|----------------|--------------------|-------------|-------------------|
|----------------|--------------------|-------------|-------------------|
|--2-------------|-----4----4---4--7--|--4----------|-/9--10----7--9----|
|--3--------3----|--5-------5---5-----|--5----------|--0--0-----0--0----|
|----------------|--------------------|-------------|-------------------|

 12           13           14                    15
|------------|------------|---------------------|--------------------|
|------------|------------|---------------------|--------------------|
|------------|------------|---------------------|--------------------|
|--5---------|--4---------|---------------------|--5--5----4--4------|
|--7---------|--5---------|--3--3--3--2--2------|--7--7----5--5------|
|------------|------------|--5--5--5--3--3--0-0-|----------------0-0-|
                                     ...    ...           ...    ...

                      //                 Let notes ring                 \\
 16                    17             18              19
|---------------------|--------------|---------------|-------------------|
|---------------------|--------------|---------------|-------------------|
|---------------------|--------------|---------------|-------------------|
|---------------------|-----2--------|--(2)------2---|-----4----4--4--5--|
|--3--3--3--2--2--3-3-|--3-----------|--(3)------3---|--5--5----5--5-----|
|--5--5--5--3--3------|--------------|---------------|-------------------|
     ...   ...    ...

 20               21                  22              23
|----------------|-------------------|---------------|----------------|
|----------------|-------------------|---------------|----------------|
|----------------|-------------------|---------------|----------------|
|--4-------------|-/9--10----7--9----|--5------------|--4-------------|
|--5-------------|--0--0-----0--0----|--7------------|--5-------------|
|----------------|-------------------|---------------|----------------|

 24                    25                    26
|---------------------|---------------------|--------------------|
|---------------------|---------------------|--------------------|
|---------------------|---------------------|--------------------|
|---------------------|--5--5--5--4--4------|--------------------|
|--3--3--3--2--2------|--7--7--7--5--5------|--3--3--3--2--2-----|
|--5--5--5--3--3--0-0-|-----------------0-0-|--5--5--5--3--3--0--|
           ...    ...            ...                ...      ...

                //Let notes ring\\
 27              28               29                 30
|---------------|----------------|------------------|----------------|
|---------------|----------------|------------------|----------------|
|---------------|----------------|------------------|----------------|
|--2------------|--2-------------|--4--4------------|--4-------------|
|--3------------|--3----3--------|--5--5------------|--5-------------|
|---------------|----------------|------------------|----------------|

 31                  32              33               34
|-------------------|---------------|----------------|---------------------|
|-------------------|---------------|----------------|---------------------|
|-------------------|---------------|----------------|---------------------|
|-/9--10----7--9----|--5------------|--4-------------|---------------------|
|--0--0-----0--0----|--7------------|--5-------------|--3--3--3--2--2------|
|-------------------|---------------|----------------|--5--5--5--3--3--0-0-|
                                                                ...    ...
 35                   36                    37
|--------------------|---------------------|----------------|
|--------------------|---------------------|----------------|
|--------------------|---------------------|----------------|
|--5--5----4--4------|---------------------|----------------|
|--7--7----5--5------|--3--3--3--2--2--3-3-|--3--------3----|
|----------------0-0-|--5--5--5--3--3------|----------------|
          ...    ...      ...   ...    ...

 38               39               40
|----------------|----------------|----------------||
|----------------|----------------|----------------||
|----------------|----------------|----------------||
|-------2--------|--4-------------|--4-------------||
|--3----3--------|--5-------------|--5-------------||
|----------------|----------------|----------------||



================================================================================
Riff 2b: Guitar 2 (Play once through)
================================================================================


  1                   2                3
||-------------------|----------------|-------------------|
||-------------------|----------------|-------------------|
||-------------------|----------------|-------------------|
||-/9--10----7--9----|--5-------------|--4------4h5-4-----|
||--0--0-----0--0----|--7-------------|--5-------------5--|
||-------------------|----------------|-------------------|

 4                   5                     6
|-------------------|---------------------|--------------------|
|-------------------|---------------------|--------------------|
|-------------------|---------------------|--------------------|
|-------------------|--5--5--5--4--4------|--------------------|
|--3--3----2--2-----|--7--7--7--5--5------|--3--3--3--2--2-----|
|--5--5----3--3--0--|-----------------0-0-|--5--5--5--3--3--0--|
          ...   ...            ...    ...            ...   ...

//                   Let notes ring                    \\
 7                 8                 9                   10
|-----------------|-----------------|-------------------|---------------|
|-----------------|-----------------|-------------------|---------------|
|-----------------|-----------------|-------------------|---------------|
|-----2-----------|--2--------------|-----4----4--4--7--|--4--------5/ -|
|--3---------3----|-------3----3----|--5--5----5--5-----|--5------------|
|-----------------|-----------------|-------------------|---------------|

 11                  12            13                  14
|-------------------|-------------|-------------------|--------------------|
|-------------------|-------------|-------------------|--------------------|
|-------------------|-------------|-------------------|--------------------|
|-/9--10----7--9----|--5----------|--4------4h5-4-----|--------------------|
|-------------------|-------------|----------------5--|--3--3----2--2------|
|-------------------|-------------|-------------------|----------------0-0-|
                                                                       ...
 15                    16                  17               18
|---------------------|-------------------|----------------|------------------|
|---------------------|-------------------|----------------|------------------|
|---------------------|-------------------|----------------|------------------|
|--5---5-----4--4--0--|-------------------|----------------|------------------|
|---------------------|--3--3----2--2-----|--(5/ 7)--------|--7----9----10----|
|---------------------|----------------0--|----------------|------------------|
                                      ...

 19                  20               21
|-------------------|----------------|-------------------|
|-------------------|----------------|-------------------|
|-------------------|----------------|-------------------|
|-----7----7--7--5--|--4--------5/ --|-/9--10----7--9----|
|--5----------------|----------------|--0--0-----0--0----|
|-------------------|----------------|-------------------|

 22                 23                  24
|------------------|-------------------|---------------------|
|------------------|-------------------|---------------------|
|------------------|-------------------|---------------------|
|--5----------5----|--4------4h5-4-----|---------------------|
|------------------|----------------5--|--3--3--3--2--2------|
|------------------|-------------------|-----------------0-0-|
                                               ...       ...

                                          //Let notes ring\\
 25                    26                  27
|---------------------|-------------------|----------------|
|---------------------|-------------------|----------------|
|---------------------|-------------------|----------------|
|--5--5--5--4--4------|-------------------|-----2----------|
|---------------------|--3--3----2--2-----|--3-------------|
|-----------------0-0-|----------------0--|----------------|
           ...    ...           ...   ...

//           Let notes ring           \\
 28                29                  30
|-----------------|-------------------|-----------------|
|-----------------|-------------------|-----------------|
|-----------------|-------------------|-----------------|
|--2---------2----|-----4----------7--|--4---------5/ --|
|--3----3---------|--5-------5--5-----|--5--------------|
|-----------------|-------------------|-----------------|

 31                  32               33
|-------------------|----------------|--------------------|
|-------------------|----------------|--------------------|
|-------------------|----------------|--------------------|
|-/9--10----7--9----|--5-------------|--4--5--7--5--4--0--|
|--0--0-----0--0----|----------------|--------------------|
|-------------------|----------------|--------------------|

 34                   35                      36
|--------------------|-----------------------|------------------|
|--------------------|-----------------------|------------------|
|--------------------|-----------------------|------------------|
|--------------------|--5--5----(5/7)p4-4----|------------------|
|--3--3----2--2------|-----------------------|--3--3----2--2-5--|
|----------------0-0-|-----------------------|------------------|
                 ...

 37                 38                   39                   40
|------------------|--------------------|--------------------|----------------||
|------------------|--------------------|--------------------|----------------||
|------------------|--------------------|--------------------|----------------||
|------------------|--------------------|--------------------|----------------||
|--(5/ 7)----------|--(7)----9----10----|--9--10----12----9--|--9--------9----||
|------------------|--------------------|--------------------|----------------||



Note the slight variation in bar 11



================================================================================
Riff 3a: Guitar 1 (Play 6 times, then play supplement) [Tempo = 65 BPM]
================================================================================


| |-------------------------------------| |------------------------------| |
| |-------------------------------------| |------------------------------| |
|7|-------------------------------------|5|------------------------------|*|
|/|--2----2----2----3------2--0---------|/|--5----5----5------7---3---5--|*|
|4|--2----2----2----3------2--0---------|4|--5----5----5------7---3---5--| |
| |--------------------------------0----| |------------------------------| |
                          ...     ...                         .........


        ==============
        | Supplement |
        ==============

        *Allow note to ring and fade out*
        | |-------|---------|---------|---------||
        | |-------|---------|---------|---------||
        |4|-------|---------|---------|---------||
        |/|-------|---------|---------|---------||
        |4|--0----|--(0)----|--(0)----|--(0)----||
        | |-------|---------|---------|---------||



================================================================================
Riff 3b: Guitar 2 (Play 6 times, then play supplement)
================================================================================


| |-------------------------------------| |------------------------------| |
| |-------------------------------------| |------------------------------| |
|7|-------------------------------------|5|------------------------------|*|
|/|--2----2----2----3------2--0---------|/|--5----5----5------7---3---5--|*|
|4|--------------------------------2----|4|------------------------------| |
| |-------------------------------------| |------------------------------| |
                                  ...


        ==============
        | Supplement |
        ==============

        *Allow note to ring and fade out*
        | |-------|---------|---------|---------||
        | |-------|---------|---------|---------||
        |4|-------|---------|---------|---------||
        |/|--2----|--(2)----|--(2)----|--(2)----||
        |4|-------|---------|---------|---------||
        | |-------|---------|---------|---------||



================================================================================
Riff 4: Guitar 3 with clean tone (Play once) [Tempo = 110 BPM]
================================================================================


*Let notes ring wherever possible*

||-----------------------|-----------------------|--------------------------|
||-----------------------|-----------------------|--------------------------|
||-----------------------|-----------------------|--------------------------|
||--7-------7-------7----|--9-------9-------9----|--10-------10-------10----|
||-------0-------0-------|-------0-------0-------|--------0--------0--------|
||-----------------------|-----------------------|--------------------------|


|------------------------------|-----------------------|-----------------------|
|------------------------------|-----------------------|-----------------------|
|------------------------------|-----------------------|-----------------------|
|--7--9--10--12--10--9---------|-----7-------7----7----|--9-------9-------9----|
|-----------------------10--8--|--8-------8------------|-------8-------8-------|
|------------------------------|-----------------------|-----------------------|

                           //      Last bar      \\
|--------------------------| |-------------------||
|--------------------------| |-------------------||
|--------------------------|7|-------------------||
|--10-------10-------10----|/|-------------------||
|--------8--------8--------|8|--8----------------||
|--------------------------| |-------------------||



This riff begins at the same time as Riff 3's supplements.  On the last bar,
guitars 1 and 2 play the following parts respectively before proceeding into
riff 5:


        ============
        | Guitar 1 |
        ============

        | |----------------------||
        | |----------------------||
        |7|----------------------||
        |/|--7----9----10----10--||
        |8|----------------------||
        | |----------------------||


        ============
        | Guitar 2 |
        ============

        | |--------------------||
        | |--------------------||
        |7|--------------------||
        |/|--------------------||
        |8|--8----8----8----8--||
        | |--------------------||



================================================================================
Riff 5a: Guitars 1 and 2 (Play twice) [Time signature = 4/4]
================================================================================


*Let notes ring wherever possible*

||-------------------------|-----------------------|---------------------------|
||-------------------------|-----------------------|---------------------------|
||-------------------------|-----------------------|---------------------------|
||(10)--7-------7-------7--|-(7)-9------9-------9--|-(9)-10-------10-------10--|
||(8)--------0-------0-----|---------0-------0-----|-----------0--------0------|
||-------------------------|-----------------------|---------------------------|


|--------------------------------|-------------------------|
|--------------------------------|-------------------------|
|--------------------------------|-------------------------|
|--(10)-7--9--10--12--10--9------|-------7--------7----7---|
|----------------------------10--|-8--8--------8-----------|
|--------------------------------|-------------------------|


|------------------------|---------------------------|
|------------------------|---------------------------|
|------------------------|---------------------------|
|-----9-------9-------9--|-----10-------10-------10--|
|--8-------8-------8-----|--8--------8--------8------|
|------------------------|---------------------------|


|-----------------------------| |
|-----------------------------| |
|-----------------------------|*|
|-----7-----9-----10-----10---|*|
|--8-----8-----8------8-------| |
|-----------------------------| |


For the first bar only, guitar 1 plays the lower ghost note.  In each subsequent
repeat both guitars play the higher note.



================================================================================
Riff 5b: Guitar 1 (Play 3 times)
================================================================================


||-------------------|----------------------|-------------------|
||-------------------|----------------------|-------------------|
||--2----------------|--2-------------------|-------------------|
||--2----------------|--2-------------------|--3----------------|
||--0----------------|--0----------3--2-----|--3----------------|
||-------------------|-------------------3--|--1----------------|


|-------------------------|-------------------|----------------------|
|-------------------------|-------------------|----------------------|
|-------------------------|--2----------------|--2-------------------|
|--3----------------------|--2----------------|--2-------------------|
|--3---------5p(3\2)--3p2-|--0----------------|--0----------3--2-----|
|--1----------------------|-------------------|-------------------3--|

                                   |_3_|
|-------------------|--------------------------| |
|-------------------|--------------------------| |
|-------------------|--------------------------|*|
|--3----------------|--2--------2--0h2p0-------|*|
|--3----------------|--2-----------------3--2--| |
|--1----------------|--0-----------------------| |



================================================================================
Riff 5c: Guitar 2 (Play once through)
================================================================================


  1                      2                          3
||----------------------|--------------------------|-----------------------|
||----------------------|--------------------------|-----------------------|
||--------9------7------|--------------------------|--------9------10------|
||-----7----------------|--10------9----10--9------|-----------------------|
||--0-------------------|----------------------10--|--8--8-----------------|
||----------------------|--------------------------|-----------------------|
   ......

 4                             5                     6
|-----------------------------|---------------------|-------------------------|
|-----------------------------|---------------------|-------------------------|
|-----------------------------|--------9------7-----|-------------------------|
|--9------10----12p10 9--10p9-|-----7---------------|--10-----9----10--9------|
|-----------------------------|--0------------------|---------------------10--|
|-----------------------------|---------------------|-------------------------|
                                ......

 7                        8               |_3_|         9
|------------------------|-----------------------------|----------------------|
|------------------------|-----------------------------|----------------------|
|------------------------|-------------9--7h9p7--------|--------9------7------|
|-------7--7--7---9------|------9---------------10--9--|-----7----------------|
|--8------------------8--|--7-------7------------------|--0-------------------|
|------------------------|-----------------------------|----------------------|
  ...                              ...                   ......

 10                         11
|--------------------------|-----------------------|
|--------------------------|-----------------------|
|--------------------------|--------9------10------|
|--10------9----10--9------|-----7-----------------|
|----------------------10--|--8--------------------|
|--------------------------|-----------------------|
                             ...

 12                            13                     14
|-----------------------------|----------------------|-------------------------|
|-----------------------------|----------------------|-------------------------|
|-----------------------------|--------9------7------|-------------------------|
|--9------10----12p10 9--10p9-|-----7----------------|--10-----9----10--9------|
|-----------------------------|--0-------------------|---------------------10--|
|-----------------------------|----------------------|-------------------------|
                                ...

 15                       16              |_3_|         17
|------------------------|-----------------------------|-----------------------|
|------------------------|-----------------------------|-----------------------|
|------------------------|-------------9--7h9p7--------|--------9------7----9--|
|-------7--7--7---9------|------9---------------10--9--|--7--7-----------------|
|--8------------------8--|--7-------7------------------|-----------------------|
|------------------------|-----------------------------|-----------------------|
  ...                              ...

 18                           19                20
|----------------------------|-----------------|-------------------------------|
|----------------------------|-----------------|-------------------------------|
|--10---9-------12---10---9--|--10-------------|-------------------------------|
|-----------10---------------|---------7-------|--(7)----9--10--12--10--9--10--|
|----------------------------|-----------------|-------------------------------|
|----------------------------|-----------------|-------------------------------|

 21                      22                        23
|-----------------------|-------------------------|------------------------|
|-----------------------|-------------------------|------------------------|
|--------9------7-------|--------------9---7---9--|--10--------------------|
|--7--7--------------9--|--10---9---7-------------|----------7--------9-10-|
|-----------------------|-------------------------|------------------------|
|-----------------------|-------------------------|------------------------|
  .....

 24
|-------------------||
|-------------------||
|-------------------||
|--9~~--------------||
|-------------------||
|-------------------||



================================================================================
Riff 6a: Guitar 1 (Play 4 times) [Tempo = 80 BPM]
================================================================================


||------------------|------------------|------------------|
||------------------|------------------|------------------|
||--2------2--2--2--|------------------|--2------2--2--2--|
||--2------2--2--2--|--3------3--3--3--|--2------2--2--2--|
||--0------0--0--0--|--3------3--3--3--|--0------0--0--0--|
||------------------|--1------1--1--1--|------------------|


|---------------------|------------------|------------------|-----------------|
|---------------------|------------------|------------------|-----------------|
|---------------------|--2------2--2--2--|------------------|-----------------|
|--3------------------|--2------2--2--2--|--3------3--3--3--|--2----2----2----|
|--3------0-2-3-2-5-3-|--0------0--0--0--|--3------3--3--3--|--2----2----2----|
|--1------------------|------------------|--1------1--1--1--|--0----0----0----|


                |_3__|
|---------------------| |
|---------------------| |
|--7------5--4--------|*|
|--7------5--4--------|*|
|--5------3--2--2h3p2-| |
|---------------------| |



================================================================================
Riff 6b: Guitar 2 (Play 4 times)
================================================================================


            |_3__|                                      |_3__|
||-----------------------|-------------------|-----------------------|
||-----------------------|-------------------|-----------------------|
||-------9--7h9p7--------|-------------------|-------9--7h9p7--------|
||--7-------------10--9--|---------7--7--7h9-|--7-------------10--9--|
||-----------------------|--8----------------|-----------------------|
||-----------------------|-------------------|-----------------------|

                                    |_3__|
|------------------------|-----------------------|------------------|
|------------------------|-----------------------|------------------|
|------------------------|-------9--7h9p7--------|------------------|
|---------7-9-10-9-12-10-|--7-------------10--9--|---------7--7-----|
|--8---------------------|-----------------------|--8------------8--|
|------------------------|-----------------------|------------------|

                                   |_3__|
|----------------|------------------------| |
|----------------|------------------------| |
|----------------|------------------------|*|
|-------9--------|--12-----/10--9--9h10p9-|*|
|--7-------------|------------------------| |
|----------------|------------------------| |



================================================================================
Riff 7a <Variation of Riff 1a>: Guitar 1 (Play once) [Tempo = 70 BPM]
================================================================================


| |---------------------|--------------------|-----------|----------------|
| |---------------------|--------------------|-----------|----------------|
|3|---------------------|--------------------|-----------|----------------|
|/|--------(5/ 9)-------|--------(5/ 9)------|-----------|----------------|
|4|-----7---------------|-----7--------------|-----------|---------/7-----|
| |--0---------------0--|--0-----------------|--8--------|--(8)-----------|
    ...             ...   ...

|---------------------|--------------------|-----------|-----------|
|---------------------|--------------------|-----------|-----------|
|---------------------|--------------------|-----------|-----------|
|--------(5/ 9)-------|--------(5/ 9)------|-----------|-----------|
|-----7---------------|-----7--------------|--7--------|--9--------|
|--0---------------0--|--0-----------------|--8--------|--7--------|
  ...             ...   ...

|---------------------|--------------------|-----------|----------------|
|---------------------|--------------------|-----------|----------------|
|---------------------|--------------------|-----------|----------------|
|--------(5/ 9)-------|--------(5/ 9)------|-----------|----------------|
|-----7---------------|-----7--------------|-----------|-------/7----7--|
|--0---------------0--|--0-----------------|--8--------|----------------|
  ...             ...   ...

|---------------------|--------------------|-----------|-----------||
|---------------------|--------------------|-----------|-----------||
|---------------------|--------------------|-----------|-----------||
|--------(5/ 9)-------|--------(5/ 9)------|-----------|-----------||
|-----7---------------|-----7--------------|--7--------|--9--------||
|--0---------------0--|--0-----------------|--8--------|--7--------||
  ...             ...   ...



================================================================================
Riff 7b <Variation of Riff 1b>: Guitar 2 (Play once)
================================================================================


| |----------------|-------------------|---------------|------------------|
| |----------------|-------------------|---------------|------------------|
|3|----------------|-------------------|---------------|------------------|
|/|--2----------2--|--2----------------|---------------|------------------|
|4|--2----------2--|--2-----/10----10--|---------------|----------/7------|
| |--0----------0--|--0----------------|--8------------|--(8)-------------|
               ...   ...

|---------------|-------------------|---------------|---------------|
|---------------|-------------------|---------------|---------------|
|---------------|-------------------|---------------|---------------|
|---------------|-------------------|---------------|---------------|
|---------------|----------/5----5--|--7~~----------|--9------------|
|--7------------|--(7)--------------|---------------|---------------|


|----------------|-------------------|---------------|------------------|
|----------------|-------------------|---------------|------------------|
|----------------|-------------------|---------------|------------------|
|--2----------2--|--2----------------|---------------|------------------|
|--2----------2--|--2-----/10----10--|---------------|----------/7------|
|--0----------0--|--0----------------|--8------------|--(8)-------------|
             ...   ...

|---------------|-------------------|---------------|----------------||
|---------------|-------------------|---------------|----------------||
|---------------|-------------------|---------------|----------------||
|---------------|-------------------|---------------|----------------||
|---------------|-----------5----5--|--7~~----------|--9-------------||
|--7------------|--(7)--------------|---------------|-------------7\ ||



================================================================================
Riff 8 <Variation of Riff 1b>: Guitars 1 and 2 (Play once through)
================================================================================


                                        // Let notes ring \\
  1                    2                 3                  4
||--------------------|-----------------|------------------|-------------------|
||--------------------|-----------------|------------------|-------------------|
||--------------------|-----------------|----------0-------|-------------------|
||-----------5--------|--4----4--2----5-|-----2---------2--|----4-----7--5--4--|
||-----2--------2-----|-----------------|--3---------------|-2-----2-----------|
||--0-----0--------0--|-----------------|------------------|-------------------|

                                         // Let notes ring \\
 5                    6                  7
|--------------------|------------------|-------------------|
|--------------------|------------------|--------1----------|
|--------------------|------------------|-------------------|
|-----------5--------|--4----4--2----5--|-----2-------2-----|
|-----2--------2-----|------------------|--3-------------3--|
|--0-----0--------0--|------------------|-------------------|

                                                            // Let notes ring \\
 8                    9                    10                 11
|--------------------|--------------------|------------------|-----------------|
|--------------------|--------------------|------------------|-----------------|
|--------------------|--------------------|------------------|---------0-------|
|-----4-----7--5--4--|-----------5--------|--4----4--2----5--|----2---------2--|
|--2-----2-----------|-----2--------2-----|------------------|-3---------------|
|--------------------|--0-----0--------0--|------------------|-----------------|

 12                   13                   14
|--------------------|--------------------|------------------|
|--------------------|--------------------|------------------|
|--------------------|--------------------|------------------|
|-----4-----7--5--4--|-----------5--------|--4----4--2----5--|
|--2-----2-----------|-----2--------2-----|------------------|
|--------------------|--0-----0--------0--|------------------|

// Let notes ring \\
 15                  16                   17
|-------------------|--------------------|--------------------|
|-------------------|--------------------|--------------------|
|-----0-----0-------|--------------------|--------------------|
|-------------------|-----4-----7--5--4--|-----------5--------|
|--3-----3-------3--|--2-----2-----------|-----2--------2-----|
|-------------------|--------------------|--0-----0--------0--|

                    // Let notes ring \\
 18                 19                  20
|------------------|-------------------|--------------------|
|------------------|-------------------|--------------------|
|------------------|--------0----------|--------------------|
|--4----4--2----5--|-----2-------2-----|-----4-----7--5--4--|
|------------------|--3-------------3--|--2-----2-----------|
|------------------|-------------------|--------------------|

                                         // Let notes ring \\
 21                   22                 23                  24
|--------------------|------------------|-------------------|-----------------||
|--------------------|------------------|--------1----------|-----------------||
|--------------------|------------------|-------------------|-----------4~~~~-||
|-----------5--------|--4----4--2----5--|-----2-------2-----|-----4-----7-5-4-||
|-----2--------2-----|------------------|--3-------------3--|--2-----2--------||
|--0-----0--------0--|------------------|-------------------|-----------------||



The note with vibrato at the end of the last bar is played by guitar 1, and the
other notes are played by guitar 2.



================================================================================
Riff 9a: Guitar 1 (Play 5 times, replace last bar with supplement) [Tempo=75BPM]
================================================================================


                        |_3_|  //   Let notes ring    \\
||----------------------------|-------------------------|----------------------|
||----------------------------|-------------------------|----------------------|
||----------------------------|-------------------------|----------------------|
||-------------------5--4h5p4-|-------2--2\ 1--2--4--1--|----------------------|
||-------(2/   7)-------------|--3-------3\ 2-----2--2--|-------(2/  5)----2---|
||--0-------------------------|-------------------------|--0-------------------|

//      Last bar     \\
|--------------------| |
|--------------------| |
|--------------------|*|
|--7--------9--------|*|
|--7--------9--------| |
|--5--------7--------| |


        ==============
        | Supplement |
        ==============

        |---------------------||
        |---------------------||
        |---------------------||
        |--7--------9---------||
        |--7--------9-----0-2-||
        |--5--------7---------||



================================================================================
Riff 9b: Guitar 2 (Play 5 times, replacing the last bar with the supplement)
================================================================================


                      |_3_|  //    Let notes ring    \\
||--------------------------|-------------------------|----------------------|
||--------------------------|-------------------------|----------------------|
||--------------------------|-------------------------|----------------------|
||-----------------5--4h5p4-|-------2--2\ 1--2--4--1--|--2----2----5----2----|
||------(2/   7)------------|--3-------3\ 2-----2--2--|--2----2----5----2----|
||--0-----------------------|-------------------------|--0----0----3----0----|


|--------------------| |
|--------------------| |
|--------------------|*|
|--7--------9--------|*|
|--7--------9--------| |
|--5--------7--------| |


        ==============
        | Supplement |
        ==============

        |---------------------||
        |---------------------||
        |---------------------||
        |--7--------9---------||
        |--7--------9-----0-2-||
        |--5--------7---------||



================================================================================
Riff 10: Guitars 1 and 2 (Play once)
================================================================================


||-------------------------|---------------------------|
||-------------------------|---------------------------|
||-------------------------|---------------------------|
||-------------2-----------|---------------------------|
||--2---------------2--0-2-|--3--3--3--5-3-2-----0-0-2-|
||-----0----0--------------|---------------------------|

|-------------------------|---------------------------|
|-------------------------|---------------------------|
|-------------------------|---------------------------|
|-------------2-----------|---------------------------|
|--2---------------2--0-2-|--3--3--3--5-3-2-----0-0-2-|
|-----0----0--------------|---------------------------|

|-------------------------|---------------------------|
|-------------------------|---------------------------|
|-------------------------|---------------------------|
|-------------2-----------|---------------------------|
|--2---------------2--0-2-|--3--3--3--5-3-2-----0-0-2-|
|-----0----0--------------|---------------------------|

|-------------------------|---------------------------||
|-------------------------|---------------------------||
|-------------------------|---------------------------||
|-------------2-----------|---------------------------||
|--2---------------2--0-2-|--3--3--3--5-3-2-----2-2-3-||
|-----0----0--------------|---------------------------||



Note the slight variation in the last bar.



================================================================================
Guitars 1 and 2 play riff 9a/9b respectivly, 3 times (including supplement)
================================================================================

================================================================================
Guitars 1 and 2 play riff 10 1 and 1/2 times (ending with the same variation)
================================================================================

================================================================================
Guitars 1 and 2 play riff 9a/9b respectivly, 2 times (including supplement)
================================================================================

================================================================================
Guitars 1 and 2 play riff 10 a 1/2 time (ending with the same variation)
================================================================================

================================================================================
Outro: Guitars 1 and 2 end the song with the following:
================================================================================


||-------------------|---------------|---------------|---------------||
||-------------------|---------------|---------------|---------------||
||-------------------|---------------|---------------|---------------||
||--2----------------|--(2)----------|--(2)----------|--(2)----------||
||--2----------------|--(2)----------|--(2)----------|--(2)----------||
||--0----------------|--(0)----------|--(0)----------|--(0)----------||



================================================================================
End
================================================================================


Tab summary:        Intro x 2
                    Riff 1a + Riff 1b x 1
                    Riff 2a + Riff 2b x 1
                    Riff 3a +Riff 3b x 6
                    Riff 4 x 1
                    Riff 5a x 2
                    Riff 5b x 3 + Riff 5c x 1
                    Riff 6a + 6b x 4
                    Riff 7a + Riff 7b x 1
                    Riff 8 x 1
                    Riff 9a + Riff 9b x 4
                    Riff 10 x 1
                    Riff 9a + 9b x 3
                    Riff 10 x 1 and 1/2
                    Riff 9a + Riff 9b x 2
                    Riff 10 x 1/2
                    Outro x 1

                    END


-----------------------
Corrections (17/11/06):
-----------------------

* Corrected Riff 10


-----------------------
Corrections (01/11/06):
-----------------------

* Corrected Riffs 3a & 3b
* Corrected Riff 10
* Minor adjustments to layout

  Visit MetalTabs.com for more metal tablature

bottom separator

Contact Us | Privacy Policy | Disclaimer | Legal Notice
Copyright © 2001-2014 MetalTabs.com. All Rights Reserved.