top separator

Home

Forum

What's New

Submit a Tab

FAQ

Links

Contact Us

Link to Us

MetalTabs.com logo

Bands

0-9

A

B

C

D

E

F

G

H

I

J

K

L

M

N

O

P

Q

R

S

T

U

V

W

X

Y

Z

Search

What

Where
 

Nortt - "Døden..." Guitar Tab

Plain Text Version
More Nortt Tabs

Hits: 5693
Rated: 3.67 out of 5 (3 votes)
Updated: 2005-04-07 15:18:48

 

By:

sendpm.gif

email.gif

Important note
This tab is available online because we obtained explicit permission from Nortt or their label.


#----------------------------------PLEASE NOTE---------------------------------#
#This file is the author's own work and represents their interpretation of the #
#song. You may only use this file for private study, scholarship, or research. #
#Unless specified otherwise, this is NOT an official tab from the band members.#
#------------------------------------------------------------------------------#

  Visit MetalTabs.com for more metal tablature
  
Nortt - Doden Demo - Doden
(c) 1998 Nortt.

Shadow0fDeath (Shadow0fDeath@gmail.com)

e|--------------------|-----------------------|
b|--------------------|-----------------------|
g|--------------------|--------------9--------|
d|------10--9---------|------10--9------------|
a|--7-----------------|--7--------------------|
e|--------------------|-----------------------|


e|--------------------|-----------------------|
b|--------------------|-----------------------|
g|-----9--10---9--7---|-----10--9---10-----7--|
d|--7-----------------|--7--------------------|
a|--------------------|-----------------------|
e|--------------------|-----------------------|





This track is basically those two phrases played over and over again alongside
some symphonic elements.

  Visit MetalTabs.com for more metal tablature

bottom separator

Contact Us | Privacy Policy | Disclaimer | Legal Notice
Copyright © 2001-2014 MetalTabs.com. All Rights Reserved.