top separator

Home

Forum

What's New

Submit a Tab

FAQ

Links

Contact Us

Link to Us

MetalTabs.com logo

Bands

0-9

A

B

C

D

E

F

G

H

I

J

K

L

M

N

O

P

Q

R

S

T

U

V

W

X

Y

Z

Search

What

Where
 

Cephalic Carnage - "Piecemaker" Guitar Tab

Plain Text Version
More Cephalic Carnage Tabs

Hits: 8954
Rated: 5.00 out of 5 (2 votes)
Updated: 2005-09-14 20:07:07

 

By:

Father Death

sendpm.gif

email.gif

Important note
This tab is available online because we obtained explicit permission from Cephalic Carnage or their label.


#----------------------------------PLEASE NOTE---------------------------------#
#This file is the author's own work and represents their interpretation of the #
#song. You may only use this file for private study, scholarship, or research. #
#Unless specified otherwise, this is NOT an official tab from the band members.#
#------------------------------------------------------------------------------#

  Visit MetalTabs.com for more metal tablature
  
Band:  CEPHALIC CARNAGE
Album: Anomalies
Song:  Piecemaker

Transcribed by: Chris Humeniuk
Email: father_death_666@hotmail.com

Tuning: Drop A

strings 1-5 - 2.5 steps down
string  6   - 3.5 steps down

Keys:
  h  - hammer on
 ___ - palm mute
  b  - bend
  r  - release bend
 < > - pinch harmonic
 / \ - slide
  p  - pull off
  x  - mute


INTRO:

|------------------------------------------------------------------
|------------------------------------------------------------------
|------------------------------------------------------------------
|---------7-------------------7-----------7---7-9br-9-7---7-9-10~--
|-7h9-9-9---9-9-7h9-9-9-9-9-9---9-7h9-9-9---9-----------9----------
|------------------------------------------------------------------
      ___   ___     _________   _     ___   _

 ---------------------------------------------------------------
 ---------------------------------------------------------------
 -9----------9----11~--11-9----9h11-11~--11-9-------------------
 ---10-9-7-9---10-----------10----------------10-9----10-9------
 --------------------------------------------------12------12~--
 ---------------------------------------------------------------

 -----------------------------------------------------------------------------
 -----------------------------------------------------------------------------
 -----------------------------------------------------------------------------
 --------9-10-<12>~----------7-------------------7-----------7---7-9b--10-9-7-
 -9-12-9-------------7h9-9-9---9-9-7h9-9-9-9-9-9---9-7h9-9-9---9--------------
 -----------------------------------------------------------------------------
                         ___   ___     _________   _     ___   _

 -------------------------------------------------------------------------
 ----------------------------------------------------------10-12-13-12-10-
 ----------9----9----9----9-11~--11-11----9-11--------9-11----------------
 ---7-9-10---10---10---10--------------10------9\7-10---------------------
 -9-----------------------------------------------------------------------
 -------------------------------------------------------------------------

 ----------------------------------------------|
 -12p10p9-12p10p9-12p10p9-12p9-13p9-12p9-------|
 ----------------------------------------11b---|
 ----------------------------------------------|
 ----------------------------------------------|
 ----------------------------------------------|


RIFF A:

|---------------------------------------------------------------
|---------------------------------------------------------------
|---------------------------------------------------------------
|-2h4-4-4-2-4-4-2-4-4-4-4-2-4-2--2h4-4-4-2-4-4-2-4-4-4-4-2-4-5--
|-2h4-4-4-0-4-4-2-4-4-4-4-0-4-0--2h4-4-4-0-4-4-2-4-4-4-4-0-4-3--
|-2h4-4-4---4-4-2-4-4-4-4---4----2h4-4-4---4-4-2-4-4-4-4---4----

 ---------------------------------------------------------------|
 ---------------------------------------------------------------|
 ---------------------------------------------------------------|
 -2h4-4-4-2-4-4-2-4-4-4-4-2-4-2--2h4-4-4-2-4-4-/10--10--10-9-7--|
 -2h4-4-4-0-4-4-2-4-4-4-4-0-4-0--2h4-4-4-0-4-4-/10--10--10-9-7--|
 -2h4-4-4---4-4-2-4-4-4-4---4----2h4-4-4---4-4-/10--10--10-9-7--| 2x


RIFF B:

|---------------------------------------------------------------|
|---------------------------------------------------------------|
|---------------------------------------------------------------|
|-2/4-----5p4---2--4-----5p4-5p4-2/4-----5p4---/10--10--10-9-7--|
|-2/4-4-4-5p4-4-2--4-4-4-5p4-5p4-2/4-4-4-5p4-4-/10--10--10-9-7--|
|-2/4-4-4-5p4-4-2--4-4-4-5p4-5p4-2/4-4-4-5p4-4-/10--10--10-9-7--| 3x
      ___     _      ___             ___     _


RIFF A - 2x


RIFF B - 3x


FILL:

|---------------------------------------------------------------|
|---------------------------------------------------------------|
|---------------------------------------------------------------|
|-10--10--10-9-7--10--10--10-9-7--10--10--10-9-7--5-------------|
|-10--10--10-9-7--10--10--10-9-7--10--10--10-9-7--5-------------|
|-10--10--10-9-7--10--10--10-9-7--10--10--10-9-7--5-------------|


RIFF C:
(Gtr 2 ringing from previous riff, Gtr 1 plays this)
|-----------------------------------------|
|-----------------------------------------|
|-----------------------------------------|
|-----------------------------------------|
|-----------------------------------------|
|-5--7br-5--5--7br-5--4--4br-4--4--4br-4--| 2x

(Gtr 1)
|------------------------------------------|
|------------------------------------------|
|------------------------------------------|
|------------------------------------------|
|------------------------------------------|
|-5--7br-5--5--7br-5--4--4br-4--4--4-2-2-2-|

(Gtr 2)
|------------------------------------------|
|------------------------------------------|
|------------------------------------------|
|------------------------------------------|
|-5--7br-5--5--7br-5--4--4br~---4--4-2-2-2-|
|------------------------------------------| 2x

(Gtr 1)
|------------------------------------------|
|------------------------------------------|
|------------------------------------------|
|------------------------------------------|
|------------------------------------------|
|-5--7b--5--5--7b--5--4--4b--4--4--4-2-2-2-|

(Gtr 2)
|------------------------------------------|
|------------------------------------------|
|------------------------------------------|
|-5--7b--5--5--7b--5--4--4br~---4--4-2-2-2-|
|------------------------------------------|
|------------------------------------------|

(Gtr 1)
|------------------------------------------|
|------------------------------------------|
|------------------------------------------|
|------------------------------------------|
|------------------------------------------|
|-5--7b--5--5--7b--5--4--4b--4--4--4-2-2-2-|

(Gtr 2)
|-----------------------------------------------|
|-----------------------------------------------|
|---------------------9--9-9/11-11--11-11-9-9-9-|
|-5--7b--5--5--7b--5--x--x-x-----x---x--x-x-x-x-|
|---------------------7--7-7/-9--9---9--9-7-7-7-|
|-----------------------------------------------|


RIFF Da:
(Gtr 1)
|------------------------------------------------------
|------------------------------------------------------
|------------------------------------------------------
|-1--0--1--3----1--3-4-4-4-1--0--1--3------------------
|-1--0--1--3----1--3-4-4-4-1--0--1--3------------------
|-1--0--1--3----1--3-4-4-4-1--0--1--3----5-5-5-7-5-4~--

 ---------------------------------------------------------|
 ---------------------------------------------------------|
 ---------------------------------------------------------|
 -1--0--1---------1--3--------1--0--1--3------------------|
 -1--0--1---------1--3--------1--0--1--3------------------|
 -1--0--1--<3>~---1--3-<4>~---1--0--1--3----5-5-5-7-5-4~--| 2x
        _         ____

(Gtr 2)
|------------------------------------------------------
|------------------------------------------------------
|------------------------------------------------------
|-1--0--1--3----1--3-4-4-4-1--0--1--3------------------
|-1--0--1--3----1--3-4-4-4-1--0--1--3------------------
|-1--0--1--3----1--3-4-4-4-1--0--1--3----5-5-5-7-5-4~--

 ---------------------------------------------------------
 ---------------------------------------------------------
 ---------------------------------------------------------
 -1--0--1---------1--3--------1--0--1--3----5-5-5-7-5-4~--
 -1--0--1---------1--3--------1--0--1--3------------------
 -1--0--1--<3>~---1--3-<4>~---1--0--1--3------------------
        _         ____

 ------------------------------------------------------
 ------------------------------------------------------
 ------------------------------------------------------
 -1--0--1--3----1--3-4-4-4-1--0--1--3------------------
 -1--0--1--3----1--3-4-4-4-1--0--1--3----5-5-5-7-5-4~--
 -1--0--1--3----1--3-4-4-4-1--0--1--3------------------

 ---------------------------------------------------------|
 ---------------------------------------------------------|
 ---------------------------------------------------------|
 -1--0--1---------1--3--------1--0--1--3------------------|
 -1--0--1---------1--3--------1--0--1--3----5-5-5-7-5-4~--|
 -1--0--1--<3>~---1--3-<4>~---1--0--1--3------------------|
        _         ____


BASS AND DRUM FILL


RIFF Db:
(Gtr 1)
|------------------------------------------------------
|------------------------------------------------------
|------------------------------------------------------
|-1--0--1--3----1--3-4-4-4-1--0--1--3------------------
|-1--0--1--3----1--3-4-4-4-1--0--1--3------------------
|-1--0--1--3----1--3-4-4-4-1--0--1--3----5-5-5-7-5-4~--

 ---------------------------------------------------------|
 ---------------------------------------------------------|
 ---------------------------------------------------------|
 -1--0--1---------1--3--------1--0--1--3------------------|
 -1--0--1---------1--3--------1--0--1--3------------------|
 -1--0--1--<3>~---1--3-<4>~---1--0--1--3----5-5-5-7-5-4~--| 2x
        _         ____

(Gtr 2)
|------------------------------------------------------
|------------------------------------------------------
|------------------------------------------------------
|-1--0--1--3----1--3-4-4-4-1--0--1--3------------------
|-1--0--1--3----1--3-4-4-4-1--0--1--3------------------
|-1--0--1--3----1--3-4-4-4-1--0--1--3----5-5-5-7-5-4~--

 ---------------------------------------------------------
 ---------------------------------------------------------
 ---------------------------------------------------------
 -1--0--1---------1--3--------1--0--1--3----5-5-5-7-5-4~--
 -1--0--1---------1--3--------1--0--1--3------------------
 -1--0--1--<3>~---1--3-<4>~---1--0--1--3------------------
        _         ____

 ------------------------------------------------------
 ------------------------------------------------------
 ------------------------------------------------------
 -1--0--1--3----1--3-4-4-4-1--0--1--3------------------
 -1--0--1--3----1--3-4-4-4-1--0--1--3----5-5-5-7-5-4~--
 -1--0--1--3----1--3-4-4-4-1--0--1--3------------------

 ---------------------------------------------------------|
 ---------------------------------------------------------|
 ---------------------------------------------------------|
 -1--0--1---------1--3--------1--0--1--3------------------|
 -1--0--1---------1--3--------1--0--1--3------------------|
 -1--0--1--<3>~---1--3-<4>~---1--0--1--3----5-5-5-7-5-4~--|
        _         ____


BASS OUTRO

fin.

  Visit MetalTabs.com for more metal tablature

bottom separator

Contact Us | Privacy Policy | Disclaimer | Legal Notice
Copyright © 2001-2014 MetalTabs.com. All Rights Reserved.