top separator

Home

Forum

What's New

Submit a Tab

FAQ

Links

Contact Us

Link to Us

MetalTabs.com logo

Bands

0-9

A

B

C

D

E

F

G

H

I

J

K

L

M

N

O

P

Q

R

S

T

U

V

W

X

Y

Z

Search

What

Where
 

Putrid Pile - "Severed Head Memento" Guitar Tab

Plain Text Version
More Putrid Pile Tabs

Hits: 4654
Rated: 2.00 out of 5 (4 votes)
Updated: 2005-03-29 14:53:57

 

By:

sendpm.gif

email.gif

Important note
This tab is available online because we obtained explicit permission from Putrid Pile or their label.


#----------------------------------PLEASE NOTE---------------------------------#
#This file is the author's own work and represents their interpretation of the #
#song. You may only use this file for private study, scholarship, or research. #
#Unless specified otherwise, this is NOT an official tab from the band members.#
#------------------------------------------------------------------------------#

  Visit MetalTabs.com for more metal tablature
  
Band:  Putrid pile
Album: Collection of Butchery
Song:  Severed head memento

Copyright (c) (2003)
Version 1.0 - (2003)

Transcribed By: (Necrologistis XIV)
Email:          (vatalan@hotmail.com)


.  - palm mute           /  - slide up to
\  - slide down to       ~  - vibrato
h  - hammer on           b  - Bend
p  - pull off            Suffixes for bend
t  - tap                 f  - full bend    h - half bend
ph - pinched harmonic    q  - quarter bend t - tap bend
*  - see comment         ^  - Hold bend    r release bend
x  - Stuccatto           ~  - vibrato bend
,  - slight palm mute    () - ghost note, sustained note
"  - tremolo note        <> - Trill

Tuning in D
 Make sure you've got a guitar turned in D flat , thanx.
   1st riff : *2
E|-------------------------------------------------------------------|
B|-------------------------------------------------------------------|
F|-------------------------------------------------------------------|
C|-------------------------------------------------------------------|
G|---------------4-3--4-3---3(9second time)-4(8~second time)---------|
D|-1-1-1-(1)-3-4----------4(not the second time)---------------------|

   2nd riff : *2
E|-------------------------------------------------------------------|
B|-------------------------------------------------------------------|
F|-------------------------------------------------------------------|
C|-------------11-10--11-10----10(16seconde time)-11(15~second time)-|
G|-8-8-8-10-11--------------11(not the second time)------------------|
D|-------------------------------------------------------------------|
   After that , play de riff one*8 lower and without (9)/(8)the seconde time
End with this :

|----l---------------------------------------------------------------|
|----l---------------------------------------------------------------|
|----l---------------------------------------------------------------|
|-(3)l-(idem riff one*4)-+-modulation--------------------------------|
|-(3)l--------------------------------9-8-2-2-2--9-8--9-8-2^-9-6-----|
|-(1)l------------------------------------0-0-0--7-6------0^---------|

On so on ..you'll find by yourself listening the track : it's always
the same notes.

And after that...(make each accords *4 or *6)
|-------------------------------------------------------------------|
|-------------------------------------------------------------------|
|------------5----6----5--------5-----------------------------------|
|-3----(6)---5----6----5----6---5---5---(6)-------------------------|
|-3----(6)---3----4----3----6---3---5---(6)-------------------------|
|-1----(4)------------------4-------3---(4)-------------------------|


Here you got the whole guitar part without the little things a little
monkey can find them.I'm bored to write them huhuhu.

Enjoy it !

Necrologistis XIV


END

  Visit MetalTabs.com for more metal tablature

bottom separator

Contact Us | Privacy Policy | Disclaimer | Legal Notice
Copyright © 2001-2014 MetalTabs.com. All Rights Reserved.