top separator

Home

Forum

What's New

Submit a Tab

FAQ

Links

Contact Us

Link to Us

MetalTabs.com logo

Bands

0-9

A

B

C

D

E

F

G

H

I

J

K

L

M

N

O

P

Q

R

S

T

U

V

W

X

Y

Z

Search

What

Where
 

Darkthrone - "Straightening Sharks In Heaven" Guitar Tab

Plain Text Version
More Darkthrone Tabs

Hits: 4124
Rated: 2.50 out of 5 (2 votes)
Updated: 2005-03-29 14:50:35

 

By:

sendpm.gif

email.gif

Important note
This tab is available online because we obtained explicit permission from Darkthrone or their label.


#----------------------------------PLEASE NOTE---------------------------------#
#This file is the author's own work and represents their interpretation of the #
#song. You may only use this file for private study, scholarship, or research. #
#Unless specified otherwise, this is NOT an official tab from the band members.#
#------------------------------------------------------------------------------#

  Visit MetalTabs.com for more metal tablature
  
Band:  (DARK THRONE)
Album: (SARDONIC WRATH)
Song:  (STRAIGHTENING SHARKS IN HEAVEN)

Copyright (c)  (MOONFOG) (2004)
Version 1.0 - (26/3/2005)

Transcribed By: (BEN LLOYD)
Email:          (benson_1au@yahoo.com)


.  - palm mute           /  - slide up to
\  - slide down to       ~  - vibrato
h  - hammer on           b  - Bend
p  - pull off            Suffixes for bend
t  - tap                 f  - full bend    h - half bend
ph - pinched harmonic    q  - quarter bend t - tap bend
*  - see comment         ^  - Hold bend    r release bend
x  - Stuccatto           ~  - vibrato bend
,  - slight palm mute    () - ghost note, sustained note
"  - tremolo note        <> - Trill

Tuning D tuning.
Riff 1 repeat x4      with alternate picking.
|-------------------------------------------------------------|
|-------------------------------------------------------------|
|-------------------------------------------------------------|
|-----22222222---2-33333333333333-----222222---2--------------|
|-3-6-00000000-3-0-11111111333333-3-6-000000-3-0-333333222222-|
|-1-4----------1-----------111111-1-4--------1---111111000000-|

Riff 2 repeat x2
|-----------------------------------------------------|
|-----------------------------------------------------|
|-----------------------------------------------------|
|-555555/6\5/65-4444444444---555555/6\5/6444444444444-|
|-333333/4\3/43-2222222244---333333/4\3/4222222555542-|
|---------------------333320--------------------------|

Riff 3 repeat x2
|-------------------------------|
|-------------------------------|
|-999\55555555-5-7/999\55555555-|
|-777\33333333-3-5/777\33333333-|
|-------------------------------|
|-------------------------------|

Riff 2.
Riff 3.
Riff 4 repeat x
|---------------------------|
|---------------------------|
|-999999109109--------------|
|-777777-87-87-999999101010-|
|--------------777777-8-8-8-|
|---------------------------|

Riff 5 Gtr.1,fig.1 repeat x2    then fig.2
(down picking)                  repeat x 4
                                then fig.1 x2
|----------------------------|-------------|
|----------------------------|-------------|
|----------------------------|-------------|
|----------------------------|-------------|
|-777777777777-888888-333333-|-(7)-(8)-(3)-|
|-555555555555-666666-111111-|-(5)-(6)-(1)-|

Riff 5 Gtr.2 repeat x
(come in on fig.2,gtr.1)
|-----------------------|
|-----------------------|
|-----------------------|
|-999999999-9-9-9999999-|
|-777777777-7-7-7777777-|
|-000555777101010888888-|

Riff 6 repeat x 7
(hold first chord longer)
|-0-1-6-----|
|-0-1-6-----|
|-0-1-6-----|
|-2-3-8-----|
|-2-3-8-----|
|-0-1-6-----|
END.

  Visit MetalTabs.com for more metal tablature

bottom separator

Contact Us | Privacy Policy | Disclaimer | Legal Notice
Copyright © 2001-2014 MetalTabs.com. All Rights Reserved.