top separator

Home

Forum

What's New

Submit a Tab

FAQ

Links

Contact Us

Link to Us

MetalTabs.com logo

Bands

0-9

A

B

C

D

E

F

G

H

I

J

K

L

M

N

O

P

Q

R

S

T

U

V

W

X

Y

Z

Search

What

Where
 

Krisiun - "Dawn of Flagellation" Guitar Tab

Plain Text Version
More Krisiun Tabs

Hits: 4990
Rated: 5.00 out of 5 (5 votes)
Updated: 2005-03-29 14:44:40

 

By:

Yura

sendpm.gif

email.gif

Important note
We did our best to reach Krisiun and ask for their permission to publish this tab. Unfortunately they did not respond to our requests or we could not find a way to contact them. This tab is available online until Krisiun tells us to take it down.


#----------------------------------PLEASE NOTE---------------------------------#
#This file is the author's own work and represents their interpretation of the #
#song. You may only use this file for private study, scholarship, or research. #
#Unless specified otherwise, this is NOT an official tab from the band members.#
#------------------------------------------------------------------------------#

  Visit MetalTabs.com for more metal tablature
  
--- KRISIUN ---
                            "Dawn of Flegallation"
                     From album: "Ageless Venomous"
                     Copyright Century Media 2001 
                     Version 1.0 (March 2005)
                     Transcribed by: Yura Kowalchuk
                     Contact:[yura@grindcore.net]
                             [yura_kowalchuk@mail.ru]
                     HOME PAGE:http://www.blood-scrapes.nm.ru
                               http://brutaltabs.musica.mustdie.ru

                            TABULATURE LEGEND:
                   " - tremolo             h - hammer on
                   ~ - vibrato             \ - slide down
                   p - pull off            / - slide down
                  tr - tremolo picking     ^ - pinch harmonics
                   = - sustained note      b - bend string
                p.m. - palm muting         t - tapping

TUNING: B [B, E, A, d, g, B]

[Riff 1]
                                                              4x
||------------------------------|-----------------------------||---------|
||o-----------------------------|----------------------------o||---------|
||------------------------------|-----------------------------||---------|
||---------2--------2---------3-|--------2--------1--------1--||---------|
||o-----------------------------|----------------------------o||---------|
||--0-1-3----0-1-3----0-1-3-----|-0-1-3----0-1-3----0-1-3-----||-0-1-3---|
|   . . .    . . .    . . .     | . . .    . . .    . . .      | . . .   |
|                                                             4x         |
||------------------------------|-----------------------------||---------|
||o-----------------------------|----------------------------o||---------|
||---------9--------9--------10-|--------9--------8--------8--||---------|
||------------------------------|-----------------------------||---------|
||o-7-8-10---7-8-10---7-8-10----|-7-8-10---7-8-10---7-8-10---o||-7-8-10--|
||------------------------------|-----------------------------||---------|
    . . .    . . .    . . .       . . .    . . .    . . .        . . .

||--------------------------|--------------------------||
||o-------------------------|-------------------------o||
||--------------------------|--------------------------||
||--------------------------|--------------------------||
||o-3---2-------2---1-------|-3---2-------2---1-------o||
||----4---3-0-1---3---2-0-1-|---4---3-0-1---3---2-0-1--||
|   . . . . . . . . . . . . | . . . . . . . . . . . .   |
||--------------------------|--------------------------||
||o-------------------------|-------------------------o||
||--5---4-------4---3-------|-5---4-------4---3--------||
||----6---5-2-3---5---4-2-3-|---6---5-2-3---5---4-2-3--||
||o-------------------------|-------------------------o||
||--------------------------|--------------------------||
    . . . . . . . . . . . .   . . . . . . . . . . . .

[Riff 2]
|--------------|-------------|--------------|
|--------------|-------------|--------------|
|--------------|-------------|--------------|
|-2--------3---|-----2-------|--------------|
|---1--------2-|-------1-----|-2----1-------|
|-----0-1------|-0-1-----0-1-|----3---2-0-1-|
| . . . .  . . | . . . . . . | .  . . . . . |
|--------------|-------------|--------------|
|--------------|-------------|--------------|
|-9-------10---|-----9-------|--------------|
|---8--------9-|-------8-----|-9----8-------|
|-----7-8------|-7-8-----7-8-|---10---9-7-8-|
|--------------|-------------|--------------|
  . . . . . .    . . . . . .   . . . . . .

|--------------|-------------|--------------|
|--------------|-------------|--------------|
|--------------|-------------|--------------|
|-2--------3---|-----2-------|--------------|
|---1--------2-|-------1-----|-2----1-------|
|-----0-1------|-0-1-----0-1-|----3---2-0-1-|
| . . . . . .  | . . . . . . | . . . .  . . |
|--------------|-------------|--------------|
|--------------|-------------|--------------|
|-9-------10---|-----9-------|--------------|
|---8--------9-|-------8-----|-9----8-------|
|-----7-8------|-7-8-----7-8-|---10---9-7-8-|
|--------------|-------------|--------------|
  . . . . .  .   . . . . . .   . .  . . . .

|--------------|-------------|--------------|
|--------------|-------------|--------------|
|--------------|-------------|--------------|
|-2--------3---|-----2-------|--------------|
|---1--------2-|-------1-----|-2----1-------|
|-----0-1------|-0-1-----0-1-|----3---2-0-1-|
| . . . .  . . | . . . . . . | .  . . . . . |
|--------------|-------------|--------------|
|--------------|-------------|--------------|
|-9-------10---|-----9-------|--------------|
|---8--------9-|-------8-----|-9----8-------|
|-----7-8------|-7-8-----7-8-|---10---9-7-8-|
|--------------|-------------|--------------|
  . . . . .  .   . . . . . .   . .  . . . .

|--------------|-------------|-----------|
|--------------|-------------|-----------|
|--------------|-------------|-----------|
|-2--------3---|-----2-------|-----------|
|---1--------2-|-------1-----|-2----1----|
|-----0-1------|-0-1-----0-1-|----3---2--|
| . . . .  . . | . . . . . . | .  . . .  |
|--------------|-------------|-----------|
|--------------|-------------|-----------|
|-9-------10---|-----9-------|-----------|
|---8--------9-|-------8-----|-9----8----|
|-----7-8------|-7-8-----7-8-|---10---9--|
|--------------|-------------|-----------|
  . . . . .  .   . . . . . .   .  . . .

[Outro 1]
|---------------------------------------|
|---------------------------------------|
|---------------------------------------|
|----------3=========================---|
|----------1=========================---|
|-0--0--0-------------------------------|
| .  .  .                               |
|---------------------------------------|
|---------------------------------------|
|---------------------------------------|
|----------3=========================---|
|----------1=========================---|
|-0--0--0-------------------------------|
  .  .  .

[Riff 3]
|-------------------------|-------------------|
|-------------------------|-------------------|
|-------------------------|-------------------|
|-------4-----5-----3-----|-4-----------5--4--|
|-2-----2-----3-----1-----|-2-----2-----5--4--|
|-0-0-0---0-0---0-0---0-0-|---0-0-0-0-0-3--2--|
|   . .   . .   . .   . . |   . .   . .       |
|-------------------------|-------------------|
|-------------------------|-------------------|
|-------------------------|-------------------|
|-------4-----5-----3-----|-4-----------5--4--|
|-2-----2-----3-----1-----|-2-----2-----5--4--|
|-0-0-0---0-0---0-0---0-0-|---0-0-0-0-0-3--2--|
    . .   . .   . .   . .     . .   . .

|-------------------------|------------------------------|
|-------------------------|------------------------------|
|-------------------------|-------------4--3-4-7---------|
|-------4-----5-----3-----|-4-----------2--1-2-5---------|
|-2-----2-----3-----1-----|-2-----2-----2--1-2-5---------|
|-0-0-0---0-0---0-0---0-0-|---0-0-0-0-0-----------0-0-0--|
|   . .   . .   . .   . . |   . .   . .           . . .  |
|-------------------------|------------------------------|
|-------------------------|------------------------------|
|-------------------------|-------------4--3-4-7---------|
|-------4-----5-----3-----|-4-----------2--1-2-5---------|
|-2-----2-----3-----1-----|-2-----2-----2--1-2-5---------|
|-0-0-0---0-0---0-0---0-0-|---0-0-0-0-0-----------0-0-0--|
    . .   . .   . .   . .     . .   . .           . . .

|-------------------------------------|
|-------------------------------------|
|-------------------------------------|
|-------4-----5-----3-----4-----------|
|-2-----2-----3-----1-----2-----2-----|
|-0-0-0---0-0---0-0---0-0---0-0-0-0-0-|
|   . .   . .   . .   . .   . .   . . |
|-------------------------------------|
|-------------------------------------|
|-------------------------------------|
|-------4-----5-----3-----4-----------|
|-2-----2-----3-----1-----2-----2-----|
|-0-0-0---0-0---0-0---0-0---0-0-0-0-0-|
    . .   . .   . .   . .   . .   . .

|-------------------------------|-----------------------|
|-------------------------------|-----------------------|
|-------------------------------|-------------4--3-4-7--|
|-5--4--------4-----5-----3-----|-4-----------2--1-2-5--|
|-5--4--2-----2-----3-----1-----|-2-----2-----2--1-2-5--|
|-3--2--0-0-0---0-0---0-0---0-0-|---0-0-0-0-0-----------|
|         . .   . .   . .   . . |   . .   . .           |
|-------------------------------|-----------------------|
|-------------------------------|-----------------------|
|-------------------------------|-------------4--3-4-7--|
|-5--4--------4-----5-----3-----|-4-----------2--1-2-5--|
|-5--4--2-----2-----3-----1-----|-2-----2-----2--1-2-5--|
|-3--2--0-0-0---0-0---0-0---0-0-|---0-0-0-0-0-----------|
          . .   . .   . .   . .     . .   . .

[Riff 4]
||----------------------|-----------------|
||o---------------------|-----------------|
||----------4--------4--|-------4--3-4-7--|
||----------2--------2--|-------2--1-2-5--|
||o---------2--------2--|-------2--1-2-5--|
||--0-0-0-0----0-0-0----|-0-0-0-----------|
|   . . . .    . . .    | . . .           |
||----------------------|-----------------|
||o---------------------|-----------------|
||----------4--------4--|-------4--3-4-7--|
||----------2--------2--|-------2--1-2-5--|
||o---------2--------2--|-------2--1-2-5--|
||--0-0-0-0----0-0-0----|-0-0-0-----------|
    . . . .    . . .      . . .

|---------------------|-----------------||
|---------------------|----------------o||
|---------4--------4--|-------4--3-4----||
|---------2--------2--|-------2--1-2-5--||
|---------2--------2--|-------2--1-2-3-o||
|-0-0-0-0----0-0-0----|-0-0-0--------3--||
| . . . .    . . .    | . . .            |
|---------------------|-----------------||
|---------------------|----------------o||
|---------4--------4--|-------4--3-4----||
|---------2--------2--|-------2--1-2-5--||
|---------2--------2--|-------2--1-2-3-o||
|-0-0-0-0----0-0-0----|-0-0-0--------3--||
  . . . .    . . .      . . .

[Riff 5]
|-----------------------------------|
|-----------------------------------|
|---------------------------11\10---|
|---------8--------8---------9\-8---|
|---------8--------8---------9\-8---|
|-0-0-0-0-6--0-0-0-6--0-0-0-------0-|
| . . . .    . . .    . . .       . |
|-----------------------------------|
|-----------------------------------|
|---------------------------11\10---|
|---------8--------8---------9\-8---|
|---------8--------8---------9\-8---|
|-0-0-0-0-6--0-0-0-6--0-0-0-------0-|
  . . . .    . . .    . . .       .

|-----------------------------|--------------------------------|
|-----------------------------|--------------------------------|
|-----------------------------|-------11\10--------------------|
|-9\10---8--------8--------8--|--------9\-8---9/10---8---------|
|-7\-8---8--------8--------8--|--------9\-8---7/-8---8---------|
|-7\-8-0-6--0-0-0-6--0-0-0-6--|-0-0-0-------0-7/-8-0-6--0-0-0--|
|      .    . . .    . . .    | . . .       .      .    . . .  |
|-----------------------------|--------------------------------|
|-----------------------------|--------------------------------|
|-----------------------------|-------11\10--------------------|
|-9\10---8--------8--------8--|--------9\-8---9/10---8---------|
|-7\-8---8--------8--------8--|--------9\-8---7/-8---8---------|
|-7\-8-0-6--0-0-0-6--0-0-0-6--|-0-0-0-------0-7/-8-0-6--0-0-0--|
       .    . . .    . . .      . . .       .      .    . . .

[Riff 6]
||--------------------------------------|---------------------------------|
||o-------------------------------------|---------------------------------|
||--7-----9-----8-----9-----9-----7-----|-9-----10-----10-----------------|
||--------------8-----------------------|--------8------8-----6--5--------|
||o-5-----7-----6-----7-----7-----5-----|-7------8------8-----6--5--------|
||----0-0---0-0---0-0---0-0---0-0---0-0-|---0-0----0-0----0-0-4--3--0-0-0-|
|     . .   . .   . .   . .   . .   . . |   . .    . .    . .       . . . |
||--------------------------------------|---------------------------------|
||o-------------------------------------|---------------------------------|
||--7-----9-----8-----9-----9-----7-----|-9-----10-----10-----------------|
||--------------8-----------------------|--------8------8-----6--5--------|
||o-5-----7-----6-----7-----7-----5-----|-7------8------8-----6--5--------|
||----0-0---0-0---0-0---0-0---0-0---0-0-|---0-0----0-0----0-0-4--3--0-0-0-|
      . .   . .   . .   . .   . .   . .     . .    . .    . .       . . .

|-------------------------------------|----------------------------------||
|-------------------------------------|---------------------------------o||
|-7-----9-----8-----9-----9-----7-----|-9-----10-----10------------------||
|-------------8-----------------------|--------8------8-----9--8---------||
|-5-----7-----6-----7-----7-----5-----|-7-------------8-----------------o||
|---0-0---0-0---0-0---0-0---0-0---0-0-|---0-0----0-0----0-0-7--6--0-0-0--||
|   . .   . .   . .   . .   . .   . . |   . .    . .    . .       . . .   |
|-------------------------------------|----------------------------------||
|-------------------------------------|---------------------------------o||
|-7-----9-----8-----9-----9-----7-----|-9-----10-----10------------------||
|-------------8-----------------------|--------8------8-----9--8---------||
|-5-----7-----6-----7-----7-----5-----|-7-------------8-----------------o||
|---0-0---0-0---0-0---0-0---0-0---0-0-|---0-0----0-0----0-0-7--6--0-0-0--||
    . .   . .   . .   . .   . .   . .     . .    . .    . .       . . .

[Riff 6]
|---------------------------|-----------------------------|
|---------------------------|-----------------------------|
|-------------------11\10---|-----------------------------|
|-8--------8---------9\-8---|-9/10---8--------8--------8--|
|-8--------8---------9\-8---|-7/-8---8--------8--------8--|
|-6--0-0-0-6--0-0-0-------0-|-7/-8-0-6--0-0-0-6--0-0-0-6--|
|    . . .    . . .       . |      .    . . .    . . .    |
|---------------------------|-----------------------------|
|---------------------------|-----------------------------|
|-------------------11\10---|-----------------------------|
|-8--------8---------9\-8---|-9/10---8--------8--------8--|
|-8--------8---------9\-8---|-7/-8---8--------8--------8--|
|-6--0-0-0-6--0-0-0-------0-|-7/-8-0-6--0-0-0-6--0-0-0-6--|
     . . .    . . .       .        .    . . .    . . .

|-------------------------------|
|-------------------------------|
|-------11\10-------------------|
|--------9\-8---9/10---8--------|
|--------9\-8---7/-8---8--------|
|-0-0-0-------0-7/-8-0-6--0-0-0-|
| . . .       .      .    . . . |
|-------------------------------|
|-------------------------------|
|-------11\10-------------------|
|--------9\-8---9/10---8--------|
|--------9\-8---7/-8---8--------|
|-0-0-0-------0-7/-8-0-6--0-0-0-|
  . . .       .      .    . . .

[RIFF 3] [RIFF 4] [RIFF 5]

[Riff 7]
||--------------------------|----------------------------||
||o-------------------------|---------------------------o||
||--5---4-------4---3-------|-5---4-------4---3----------||
||----6---5-2-3---5---4-2-3-|---6---5-2-3---5---4-2-3----||
||o-------------------------|---------------------------o||
||--------------------------|----------------------------||
|   . . . . . . . . . . . . | . . . . . . . . . . . .     |
||--------------------------|----------------------------||
||o-------------------------|---------------------------o||
||--8---7-------7---6-------|-8---7-------7---6----------||
||----9---8-5-6---8---7-5-6-|---9---8-5-6---8---7-5-6----||
||o-------------------------|---------------------------o||
||--------------------------|----------------------------||
    . . . . . . . . . . . .   . . . . . . . . . . . .

[Riff 8]
|-------------------|-------------------|-------------------|
|-------------------|-------------------|-------------------|
|--9----------10----|--------9----------|-------------------|
|-----8-----------9-|-----------8-------|--9-----8----------|
|--------7--8-------|--7--8--------7--8-|----10-----9--7--8-|
|-------------------|-------------------|-------------------|
|  .  .  .  . .  .  |  .  .  .  .  .  . |  .  .  .  .  .  . |
|-------------------|-------------------|-------------------|
|-------------------|-------------------|-------------------|
|-12----------13----|-------12----------|-------------------|
|----11----------12-|----------11-------|-12----11----------|
|-------10-11-------|-10-11-------10-11-|----13----12-10-11-|
|-------------------|-------------------|-------------------|
  .  .  .  .  .  .    .  .  .  .  .  .    .  .  .  .  .  .

|-------------------|-------------------|-------------------|
|-------------------|-------------------|-------------------|
|--9----------10----|--------9----------|-------------------|
|-----8-----------9-|-----------8-------|--9-----8----------|
|--------7--8-------|--7--8--------7--8-|----10-----9--7--8-|
|-------------------|-------------------|-------------------|
|  .  .  .  .  .  . |  .  .  .  .  .  . |  .  .  .  .  .  . |
|-------------------|-------------------|-------------------|
|-------------------|-------------------|-------------------|
|-12----------13----|-------12----------|-------------------|
|----11----------12-|----------11-------|-12----11----------|
|-------10-11-------|-10-11-------10-11-|----13----12-10-11-|
|-------------------|-------------------|-------------------|
  .  .  .  .  .  .    .  .  .  .  .  .    .  .  .  .  .  .

|-------------------|-------------------|-------------------|
|-------------------|-------------------|-------------------|
|--9----------10----|--------9----------|-------------------|
|-----8-----------9-|-----------8-------|--9-----8----------|
|--------7--8-------|--7--8--------7--8-|----10-----9--7--8-|
|-------------------|-------------------|-------------------|
|  .  .  .  .  .  . |  .  .  .  .  .  . |  . .   .  .  .  . |
|-------------------|-------------------|-------------------|
|-------------------|-------------------|-------------------|
|-12----------13----|-------12----------|-------------------|
|----11----------12-|----------11-------|-12----11----------|
|-------10-11-------|-10-11-------10-11-|----13----12-10-11-|
|-------------------|-------------------|-------------------|
  .  .  .  .  .  .    .  .  .  .  .  .    .  .  .  .  .  .

|-------------------|-------------------|--------------|-----|
|-------------------|-------------------|--------------|-----|
|--9----------10----|--------9----------|--------------|-----|
|-----8-----------9-|-----------8-------|--9-----8-----|-----|
|--------7--8-------|--7--8--------7--8-|----10-----9--|-----|
|-------------------|-------------------|--------------|-----|
|  .  .  .  .  .  . |  .  .  .  .  .  . |  .  .  .  .  |     |
|-------------------|-------------------|--------------|-----|
|-------------------|-------------------|--------------|-----|
|-12----------13----|-------12----------|--------------|-----|
|----11----------12-|----------11-------|-12----11-----|-----|
|-------10-11-------|-10-11-------10-11-|----13----12--|-----|
|-------------------|-------------------|--------------|-----|
  .  .  .  .  .  .    .  .  .  .  .  .    .  .  .  .

/BREAK/

[Riff 9]
                                                        4x
||--------------------------|---------------------------||
||o-------------------------|--------------------------o||
||--------------------------|---------------------------||
||--3-----------3-----------|-4-----------4-------------||
||o-1-----------1-----------|-2-----------2------------o||
||-----0--0--0-----0--0--0--|----0--0--0-----0--0--0----||
|      .  .  .     .  .  .  |    .  .  .     .  .  .     |
|                           |                           4x
||--------------------------|---------------------------||
||o-------------------------|--------------------------o||
||--------------------------|---------------------------||
||--3-----------3-----------|-4-----------4-------------||
||o-1-----------1-----------|-2-----------2------------o||
||-----0--0--0-----0--0--0--|----0--0--0-----0--0--0----||
       .  .  .     .  .  .       .  .  .     .  .  .

[Riff 10]
||---------------------|----------------------||
||o--------------------|---------------------o||
||---------------------|----------------------||
||--3===========-------|-4===========---------||
||o-1===========-------|-2===========--------o||
||---------------0--0--|--------------0--0----||
|                .  .  |              .  .     |
||---------------------|----------------------||
||o--------------------|---------------------o||
||---------------------|----------------------||
||--3===========-------|-4===========---------||
||o-1===========-------|-2===========--------o||
||---------------0--0--|--------------0--0----||
                 .  .                 .  .

[RIFF 9 (x2)]

[Outro 2]
|----------------------------|
|----------------------------|
|----------------------------|
|-3=========================-|
|-1=========================-|
|----------------------------|
|                            |
|----------------------------|
|----------------------------|
|----------------------------|
|-3=========================-|
|-1=========================-|
|----------------------------|

[RIFF 3] [RIFF 4 (x2)] [RIFF 5] [RIFF 6 (x2)]

END OF SONG

  Visit MetalTabs.com for more metal tablature

bottom separator

Contact Us | Privacy Policy | Disclaimer | Legal Notice
Copyright © 2001-2014 MetalTabs.com. All Rights Reserved.