top separator

Home

Forum

What's New

Submit a Tab

FAQ

Links

Contact Us

Link to Us

MetalTabs.com logo

Bands

0-9

A

B

C

D

E

F

G

H

I

J

K

L

M

N

O

P

Q

R

S

T

U

V

W

X

Y

Z

Search

What

Where
 

Mourning Beloveth - "Autumnal Fires" Guitar Tab

Plain Text Version
More Mourning Beloveth Tabs

Hits: 3446
Rated: 5.00 out of 5 (21 votes)
Updated: 2006-11-07 06:23:26

 

By:

Paddy

sendpm.gif

email.gif

Important note
This tab is available online because we obtained explicit permission from Mourning Beloveth or their label.


#----------------------------------PLEASE NOTE---------------------------------#
#This file is the author's own work and represents their interpretation of the #
#song. You may only use this file for private study, scholarship, or research. #
#Unless specified otherwise, this is NOT an official tab from the band members.#
#------------------------------------------------------------------------------#

  Visit MetalTabs.com for more metal tablature
  
================================================================================
                       M O U R N I N G   B E L O V E T H

                                       -

                          A U T U M N A L   F I R E S
================================================================================


                                      DUST
                           (c) Sentinel Records - 2000
                        http://www.mourningbeloveth.com/


                              Tune Down 1 & 1/2 Steps
                                  C# F# B E G# C#

                                  Tempo = 75 BPM
                               Time Signature = 8/4



                          -----------------------------
                                 Transcribed by

                                 PADDY MCMULLAN
                           stinkypoohpants@yahoo.co.uk

                                   Version 1.5
                      (Corrections Outlined at Bottom of Tab)

                             -----------------------

                             Tablature Symbols Used:


 P.M...    -  Palm Mute
 p         -  Pull-Off
 h         -  Hammer-On
 (/)       -  Legato Slide (Blank space indicates length of slide)
 \         -  Slide Down to/Down From (Blank space indicates length of slide)
 /         -  Slide Up To/Up From (Blank space indicates length of slide)
 ( )       -  Ghost Note/Tied Note/Implied Note
 |__3__|   -  Triplet Notes
 x         -  Muted Note/Muffled Note/Dead Note



================================================================================
Riff 1a: Guitar 1 with heavy distortion (Play 4 times)
================================================================================


||----------------------------|----------------------------|
||----------------------------|----------------------------|
||--2----------------------2--|--2-------------------------|
||--2----------------------2--|--2----------------------3--|
||--0----------------------0--|--0----------------------3--|
||----------------------------|-------------------------1--|
                          P.M                          ...


|----------------------------|-----------------------------------|
|----------------------------|-----------------------------------|
|----------------------------|-----------------------------------|
|--3----------------------3--|--3--------------------------*--*--|
|--3----------------------3--|--3--------------------------2--3--|
|--1----------------------1--|--1--------------------------------|
                         ...

|----------------------------|----------------------------|
|----------------------------|----------------------------|
|--2----------------------2--|--2-------------------------|
|--2----------------------2--|--2----------------------3--|
|--0----------------------0--|--0----------------------3--|
|----------------------------|-------------------------1--|
                         ...                          ...

|----------------------------|------------------------------------------| |
|----------------------------|------------------------------------------| |
|----------------------------|------------------------------------------|*|
|--3----------------------3--|--3------------------2----3----3----------|*|
|--3----------------------3--|--3--------3----2-------------------2--3--| |
|--1----------------------1--|--1---------------------------------------| |
                         ...



** These two notes are played on the second and fourth repeats



================================================================================
Riff 1b: Guitar 2 with heavy distortion (Play once through)
================================================================================


  1
||--------------------------------------------|
||--------------------------------------------|
||--------------------------------------------|
||--7-------/10~~------9-----(9)\7~~--(7)\-7--|
||--7--------------------------------------7--|
||--5--------------------------------------5--|
                                          ...

 2                           |__3___|
|--------------------------------------------------|
|--------------------------------------------------|
|--------------------------------------------------|
|--7-------/10~~------9~~----9h10p(9\7)~~--(7)\-3--|
|--7--------------------------------------------3--|
|--5--------------------------------------------1--|
                                               ...
 3
|------------------------------------------------------|
|------------------------------------------------------|
|------------------------------------------------------|
|--3-------/10----9----9h10----(10/12)----12\  -9--10--|
|--3---------------------------------------------------|
|--1---------------------------------------------------|

 4
|---------------------------------------------------|
|---------------------------------------------------|
|-----------------------9----(9/10)----10~~---------|
|--10~~------10----9-------------------------9--10\ |
|---------------------------------------------------|
|---------------------------------------------------|

 5
|----------------------------------------------|
|----------------------------------------------|
|----------------------------------------------|
|--7-------/10~~------9-------(9)\7~~--(7)\-7--|
|--7----------------------------------------7--|
|--5----------------------------------------5--|
                                           ...

 6                           |__3__|
|--------------------------------------------------|
|--------------------------------------------------|
|--------------------------------------------------|
|--7-------/10~~------9~~----9h10p(9\7)~~--(7)\-3--|
|--7--------------------------------------------3--|
|--5--------------------------------------------1--|
                                               ...
 7
|------------------------------------------------------------|
|------------------------------------------------------------|
|------------------------------------------------------------|
|--3-------/10----9~~--10---(10/12)---(10/12)---12p10p9h 10--|
|--3---------------------------------------------------------|
|--1---------------------------------------------------------|

 8
|-------------------------------------------------------|
|-------------------------------------------------------|
|-----------------------(7/9)----(9/10)----10~~---------|
|--10~-------10----9-----------------------------9--10\ |
|-------------------------------------------------------|
|-------------------------------------------------------|

 9
|----------------------------------------------|
|----------------------------------------------|
|----------------------------------------------|
|--7-------/10~~------9-------(9)\7~~--(7)\-7--|
|--7----------------------------------------7--|
|--5----------------------------------------5--|
                                           ...
 10
|----------------------------------------------|
|----------------------------------------------|
|----------------------------------------------|
|--7-------/10~~------9-------(9)\7~~--(7)\-3--|
|--7----------------------------------------3--|
|--5----------------------------------------1--|
                                           ...
 11
|----------------------------------------------------|
|----------------------------------------------------|
|----------------------------------------------------|
|--3-------/10----9----10----(10/12)----12\  -9--10--|
|--3-------------------------------------------------|
|--1-------------------------------------------------|

 12
|---------------------------------------------------|
|---------------------------------------------------|
|-----------------------9----(9/10)----10~~---------|
|--10~~------10----9-------------------------9--10\ |
|---------------------------------------------------|
|---------------------------------------------------|

 13
|----------------------------------------------|
|----------------------------------------------|
|----------------------------------------------|
|--7-------/10~~------9-------(9)\7~~--(7)\-7--|
|--7----------------------------------------7--|
|--5----------------------------------------5--|
                                           ...

 14                       |__3__|
|--------------------------------------------------|
|--------------------------------------------------|
|--------------------------------------------------|
|--7-------/10~~------9~~----9h10p(9\7)~~--(7)\-3--|
|--7--------------------------------------------3--|
|--5--------------------------------------------1--|
                                               ...
 15
|------------------------------------------------------------|
|------------------------------------------------------------|
|------------------------------------------------------------|
|--3-------/10----9~~--10---(10/12)---(10/12)---12p10p9h 10--|
|--3---------------------------------------------------------|
|--1---------------------------------------------------------|

 16
|-------------------------------------------------------|
|-------------------------------------------------------|
|-----------------------(7/9)----(9/10)----10~~---------|
|--10~~------10----9-----------------------------9--10\ |
|-------------------------------------------------------|
|-------------------------------------------------------|

 17
|----------------------------------------------|
|----------------------------------------------|
|----------------------------------------------|
|--7-------/10~~------9-------(9\7)~~--(7)\-7--|
|--7----------------------------------------7--|
|--5----------------------------------------5--|
                                           ...

 18                          |__3__|
|--------------------------------------------------|
|--------------------------------------------------|
|--------------------------------------------------|
|--7-------/10~~------9~~----9h10p(9\7)~~--(7)\-3--|
|--7--------------------------------------------3--|
|--5--------------------------------------------1--|
                                               ...
 19
|----------------------------------------------------|
|----------------------------------------------------|
|----------------------------------------------------|
|--3-------/10----9----10----(10/12)----12\  -9--10--|
|--3-------------------------------------------------|
|--1-------------------------------------------------|

 20
|---------------------------------------------------|
|---------------------------------------------------|
|-----------------------9----(9/10)----10~~---------|
|--10~~------10----9-------------------------9--10\ |
|---------------------------------------------------|
|---------------------------------------------------|

 21
|----------------------------------------------|
|----------------------------------------------|
|----------------------------------------------|
|--7-------/10~~------9-------(9)\7~~--(7)\-7--|
|--7----------------------------------------7--|
|--5----------------------------------------5--|
                                           ...

 22                          |__3__|
|--------------------------------------------------|
|--------------------------------------------------|
|--------------------------------------------------|
|--7-------/10~~------9~~----9h10p(9\7)~~--(7)\-3--|
|--7--------------------------------------------3--|
|--5--------------------------------------------1--|
                                               ...
 23
|------------------------------------------------------------|
|------------------------------------------------------------|
|------------------------------------------------------------|
|--3-------/10----9~~--10---(10/12)---(10/12)---12p10p9h 10--|
|--3---------------------------------------------------------|
|--1---------------------------------------------------------|

 24
|-------------------------------------------------------|
|-------------------------------------------------------|
|-----------------------(7/9)----(9/10)----10~~---------|
|--10~~------10----9-----------------------------9--10\ |
|-------------------------------------------------------|
|-------------------------------------------------------|

 25
|----------------------------------------------|
|----------------------------------------------|
|----------------------------------------------|
|--7-------/10~~------9-------(9)\7~~--(7)\-7--|
|--7----------------------------------------7--|
|--5----------------------------------------5--|
                                           ...
 26
|----------------------------------------------|
|----------------------------------------------|
|----------------------------------------------|
|--7-------/10~~------9-------(9)\7~~--(7)\-3--|
|--7----------------------------------------3--|
|--5----------------------------------------1--|
                                           ...
 27
|----------------------------------------------------|
|----------------------------------------------------|
|----------------------------------------------------|
|--3-------/10----9----10----(10/12)----12\  -9--10--|
|--3-------------------------------------------------|
|--1-------------------------------------------------|

 28
|---------------------------------------------------|
|---------------------------------------------------|
|-----------------------9----(9/10)----10~~---------|
|--10~~------10----9-------------------------9--10\ |
|---------------------------------------------------|
|---------------------------------------------------|

 29
|----------------------------------------------|
|----------------------------------------------|
|----------------------------------------------|
|--7-------/10~~------9-------(9)\7~~--(7)\-7--|
|--7----------------------------------------7--|
|--5----------------------------------------5--|
                                           ...

 30                          |__3__|
|--------------------------------------------------|
|--------------------------------------------------|
|--------------------------------------------------|
|--7-------/10~~------9~~----9h10p(9\7)~~--(7)\-3--|
|--7--------------------------------------------3--|
|--5--------------------------------------------1--|
                                               ...
 31
|------------------------------------------------------------|
|------------------------------------------------------------|
|------------------------------------------------------------|
|--3-------/10----9~~--10---(10/12)---(10/12)---12p10p9h 10--|
|--3---------------------------------------------------------|
|--1---------------------------------------------------------|

 32
|-----------------------------------------------||
|-----------------------------------------------||
|-----------------------9----10----10~~---------||
|--10~~------10----9---------------------9--10\ ||
|-----------------------------------------------||
|-----------------------------------------------||



================================================================================
Riff 2: Both guitars (Play twice) [Tempo = 130 BPM]
================================================================================


||-------------------------------------|
||-------------------------------------|
||--2--------------2--2----------------|
||--2--------------2--2----------------|
||--0--------------0--0----------------|
||-------------------------------------|
                  ...

|--------------------------------------|------------------------------------|
|--------------------------------------|------------------------------------|
|--2----------------2------------------|------------------------------------|
|--2----------------2------5------2----|--3--------------2h 3------------3--|
|--0----------------0------5------2----|--3--------------2h 3------------3--|
|--------------------------3------0----|--1--------------0h 1------------1--|
                                                                        ...


|--------------------------------------| |
|--------------------------------------| |
|--------------------------------------|*|
|--3----------------3------2------5----|*|
|--3----------------3------2------5----| |
|--1----------------1------0------3----| |



================================================================================
Riff 3a: Guitar 1 (Play 4 times)
================================================================================


||-------------------------------------|
||-------------------------------------|
||--2--------------2--2----------------|
||--2--------------2--2----------------|
||--0--------------0--0----------------|
||-------------------------------------|
                  ...

|--------------------------------------|-------------------------------------|
|--------------------------------------|-------------------------------------|
|--2----------------2------------------|-------------------------------------|
|--2----------------2------5------2----|--3--------3-----3-------------3--3--|
|--0----------------0------5------2----|--3--------3--2--3-------------3--3--|
|--------------------------3------0----|--1--------1--0--1-------------1--1--|
                                                  ......              ......

|-----------------------------------------| |
|-----------------------------------------| |
|-----------------------------------------|*|
|--3--------3-----3--------2---/5----5----|*|
|--3--------3--2--3--------2---/5----5----| |
|--1--------1--0--1--------0---/3----3----| |
           ......



================================================================================
Riff 3b: Guitar 2 (Play once through)
================================================================================


  1
||----------------------------------------------|
||----------------------------------------------|
||----------------------------------------------|
||--7--------9----10----(9)\7------------(7)\5--|
||----------------------------------------------|
||----------------------------------------------|

 2                             |____3_____|
|--------------------------------------------------|
|--------------------------------------------------|
|--------------------------------------------------|
|--(5/ 7)--------------7--7----9----10----9----10--|
|--------------------------------------------------|
|--------------------------------------------------|

 3
|----------------------------------------------------------|
|----------------------------------------------------------|
|----------------------------------------------------------|
|--(10/12)------(12)\10--9--10-------(10)\7--------9--9h10-|
|----------------------------------------------------------|
|----------------------------------------------------------|

 4
|--------------------------------------------------|
|--------------------------------------------------|
|-------------------------------10--------9h 10----|
|--(10/12)-------10--9--10-------------------------|
|--------------------------------------------------|
|--------------------------------------------------|

 5
|------------------------------------------------|
|------------------------------------------------|
|--9--------------------------9h 10--------------|
|-----10--9h 10--7-------------------9h 10--7----|
|------------------------------------------------|
|------------------------------------------------|

 6
|------------------------------------------------|
|------------------------------------------------|
|--9h 10-----------------------------------------|
|---------9h 10--7\  -------7---9---10---9h 10---|
|------------------------------------------------|
|------------------------------------------------|

 7
|-----------------------------------------------------|
|-----------------------------------------------------|
|-----------------------------------------------------|
|--(10/12)-------10--9--10--------(10)\7-------9--10--|
|-----------------------------------------------------|
|-----------------------------------------------------|

 8
|------------------------------------------------|
|------------------------------------------------|
|------------------------------------------------|
|--(10/12)-------10--9--10--------9--------10\  -|
|------------------------------------------------|
|------------------------------------------------|

 9
|------------------------------------------------|
|------------------------------------------------|
|------------------------------------------------|
|--9------10p9\7------5--(5/ 7)------------5h(7/ |
|------------------------------------------------|
|------------------------------------------------|

 10
|----------------------------------------------------|
|----------------------------------------------------|
|----------------------------------------------------|
| /10)------9----10p9\7----(7)\ 7---9---10---9---10--|
|----------------------------------------------------|
|----------------------------------------------------|

 11
|----------------------------------------------------------|
|----------------------------------------------------------|
|----------------------------------------------------------|
|--(10/12)------(12)\10--9--10-------(10)\7--------9--9h10-|
|----------------------------------------------------------|
|----------------------------------------------------------|

 12
|------------------------------------------------|
|------------------------------------------------|
|-------------------------------10--------9h 10--|
|--(10/12)-------10--9--10-----------------------|
|------------------------------------------------|
|------------------------------------------------|

 13
|------------------------------------------------|
|------------------------------------------------|
|--9--------------------------9h 10--------------|
|-----10--9h 10--7-------------------9h 10--7----|
|------------------------------------------------|
|------------------------------------------------|

 14
|------------------------------------------------|
|------------------------------------------------|
|--9h 10-----------------------------------------|
|---------9h 10--7\  -------7---9---10---9h 10---|
|------------------------------------------------|
|------------------------------------------------|

 15
|-----------------------------------------------------|
|-----------------------------------------------------|
|-----------------------------------------------------|
|--(10/12)-------10--9--10--------(10)\7-------9--10--|
|-----------------------------------------------------|
|-----------------------------------------------------|

 16
|------------------------------------------------||
|------------------------------------------------||
|------------------------------------------------||
|--(10/12)-------10--9--10--------9--------10\  -||
|------------------------------------------------||
|------------------------------------------------||



================================================================================
Riff 4a: Guitar 1 (Play 9 times)
================================================================================


||------------------------------------------|
||------------------------------------------|
||--2---------------------------------------|
||--2--------(2/ 3)----2--2------------5----|
||--0---------------------------------------|
||------------------------------------------|

                     |_3_|           |_____3_____|
|----------------------------------------------------|
|----------------------------------------------------|
|----------------------------------------------------|
|--(5\    3)---------3h5p3---2--------2--------------|
|------------------------------------------3----2----|
|----------------------------------------------------|


|------------------------------------------|
|------------------------------------------|
|--2---------------------------------------|
|--2--------(2/ 3)----2--2  \  ------------|
|--0----------------------------------3----|
|------------------------------------------|


|---------------------------------------------| |
|---------------------------------------------| |
|---------------------------------------------|*|
|---------------------------------------------|*|
|--(3/5)--------3----2----2----3----2----3----| |
|---------------------------------------------| |



================================================================================
Riff 4b: Guitar 2 (Play 4 and 1/2 times)
================================================================================

  1
||------------------------------------------|
||-------------------------------------*----|
||--2---------------------------------(2)---|
||--2--------(2/ 3)----2---------------5----|
||--0---------------------3-----------------|
||------------------------------------------|


* This ghost note is played in place of the 5 note the first time only


 2                  |_3_|             |____3____|
|----------------------------------------------------|
|----------------------------------------------------|
|---------------------------(1)-------1----2----4\ --|
|--(5\   3)---------3h5p3----2-----------------------|
|----------------------------------------------------|
|----------------------------------------------------|

 3
|------------------------------------------|
|------------------------------------------|
|--2---------------------------------------|
|--2--------(2/ 3)----2---------------3----|
|--0---------------------3------------3----|
|-------------------------------------1----|
                                     ...
 4
|-----------------------------------------|
|-----------------------------------------|
|-----------------------------------------|
|--3--------3----2------------------------|
|--3--------3----2---------3----2---------|
|--1--------1----0----0--------------3----|
                ...
 5
|------------------------------------------|
|------------------------------------------|
|--2---------------------------------------|
|--2--------(2/ 3)----2---------------5----|
|--0---------------------3-----------------|
|------------------------------------------|

 6                 |_3_|            |____3____|
|--------------------------------------------------|
|--------------------------------------------------|
|-----------------------------------4----2----1----|
|--(5\   3)--------2h3p3---2-----------------------|
|--------------------------------------------------|
|--------------------------------------------------|

 7
|------------------------------------------|
|------------------------------------------|
|--2\ -------------------------------------|
|-----------(2/ 3)----2---------------3----|
|------------------------3------------3----|
|-------------------------------------1----|
                                     ...
 8
|-----------------------------------------| |
|-----------------------------------------| |
|-----------------------------------------|*|
|--3--------3----2------------------------|*|
|--3--------3----2---------3----2---------| |
|--1--------1----0----0--------------3----| |
                ...






On the last repeat, replace the last bar with the supplement:


        --------------
        | Supplement |
        --------------

        |-----------------------------------------||
        |-----------------------------------------||
        |-----------------------------------------||
        |--3--------3----2----2-------------------||
        |--3--------3----2----2-------------------||
        |--1--------1----0----0-------------------||
                        ...



================================================================================
Riff 5a: Guitar 1 (Play 4 times, replace last bar with supplement after repeats)
================================================================================


||---------------------------|--------------------------------|
||---------------------------|--------------------------------|
||---------------------------|--------------------------------|
||--7------------------------|--7-----------------------------|
||--7------------------------|--7-----------------------------|
||--5------------------------|--5--------------(5/ 8)----5----|

                                         //        Last Bar        \\
|----------------------------------------|-------------------------| |
|----------------------------------------|-------------------------| |
|----------------------------------------|-------------------------|*|
|--2----------2----2---------------------|-------------------------|*|
|--2----------2----2------2----(2/ 3)----|--2------------2----3----| |
|--0----------0----0---------------------|-------------------------| |
             ...


        ==============
        | Supplement |
        ==============


        |---------------------||
        |---------------------||
        |---------------------||
        |---------------------||
        |--2----------3----5--||
        |---------------------||



================================================================================
Riff 5b: Guitar 2 (Play 4 times, replace last bar with supplement after repeats)
================================================================================


||-----------------------------------------|
||-----------------------------------------|
||-----------------------------------------|
||--/9------9--10----10--------------------|
||-----------------------------------------|
||-----------------------------------------|


|------------------------------------------------|
|------------------------------------------------|
|------------------------------------------------|
|--9------(9/ 10)----10--------(10/ 12)----10\ --|
|------------------------------------------------|
|------------------------------------------------|


|--------------------------------------------|
|--------------------------------------------|
|--------------------------------------------|
|-------9------------------9------(9/ 10)----|
|--7---------7----7--------------------------|
|--------------------------------------------|

//       Last Bar         \\
|-------------------------| |
|-------------------------| |
|-------------------------|*|
|--9------------7----9----|*|
|-------------------------| |
|-------------------------| |


        ==============
        | Supplement |
        ==============


        |----------------------||
        |----------------------||
        |----------------------||
        |--9-------------------||
        |----------------------||
        |-------------8----10--||



================================================================================
Riff 6a: Guitar 1 (Play 4 times) [Tempo = 110 BPM]
================================================================================


||----------------------------|------------------------------------|
||----------------------------|------------------------------------|
||--7-------------------------|--(7)-------------------------------|
||--7-------------------------|--(7)------------5------------------|
||--5-------------------------|--(5)----------------------3--------|
||----------------------------|------------------------------------|


|---------------------------------|---------------------------------|
|---------------------------------|---------------------------------|
|---------------------------------|---------------------------------|
|--3-----------3----3-------------|--(3)-----------2----------------|
|--3-----------3----3-------------|--(3)--------------------3-------|
|--1-----------1----1-------------|--(1)----------------------------|
              ...

|---------------------------------|---------------------------------| |
|---------------------------------|---------------------------------| |
|--2-----------2----2-------------|--(2)----------------------------|*|
|--2-----------2----2-------------|--(2)--------------------5-------|*|
|--0-----------0----0-------------|--(0)-----------3----------------| |
|---------------------------------|---------------------------------| |



================================================================================
Riff 6b: Guitar 2 (Play once through)
================================================================================


  1
||--------------------------------------|
||--------------------------------------|
||--------------------------------------|
||--7------------7p 5--7----------------|
||--------------------------------------|
||--------------------------------------|

 2
|--------------------------------------------|
|--------------------------------------------|
|--------------------------------------------|
|--(7)--------------------------(9/10)-------|
|---------------------10---------------------|
|--------------------------------------------|

 3                                    4
|------------------------------------|--------------------------------|
|------------------------------------|--------------------------------|
|------------------------------------|--------------------------------|
|--10--------(10)\-------------------|----------------------(9/10)----|
|------------------8----8------------|--(8)-----------7---------------|
|------------------------------------|--------------------------------|

 5                                 6
|---------------------------------|-------------------------------|
|---------------------------------|-------------------------------|
|---------------------------------|-------------------------------|
|--10------(10)\7p 5--7-----------|--(7)--------------------------|
|---------------------------------|-------------------------------|
|---------------------------------|----------------8------10------|

 7                     |__3__|
||-----------------------------------------------|
||-----------------------------------------------|
||-----------------------------------------------|
||--7---------(7)/ 10--9h10p(9\7)----------------|
||-----------------------------------------------|
||-----------------------------------------------|

 8
|----------------------------------------|
|----------------------------------------|
|----------------------------------------|
|--(7)------------(7)\5--------10--------|
|----------------------------------------|
|----------------------------------------|

 9                                   |__3__|
|------------------------------------------------|
|------------------------------------------------|
|------------------------------------------------|
|--10--------------------------------------------|
|----------------8----8----------10--8h10p(8\7)--|
|------------------------------------------------|

 10                           11
|----------------------------|---------------------------------------|
|----------------------------|---------------------------------------|
|----------------------------|---------------------------------------|
|----------------------10----|--10------------7--5--7----------------|
|--8------------7------------|---------------------------------------|
|----------------------------|---------------------------------------|

 12                                    13
|-------------------------------------|------------------------------|
|-------------------------------------|------------------------------|
|-------------------------------------|------------------------------|
|--(7)--------------------------------|--7--------7p 5--7------------|
|-------------------------------------|------------------------------|
|------------------8--------10--------|------------------------------|

 14
|--------------------------------------------|
|--------------------------------------------|
|--------------------------------------------|
|--(7)--------------------------(9/10)-------|
|---------------------10---------------------|
|--------------------------------------------|

 15                                16
|---------------------------------|------------------------------------|
|---------------------------------|------------------------------------|
|---------------------------------|------------------------------------|
|--10-------(10)\-----------------|-------------------------(9/10)-----|
|-----------------8----8----------|--(8)-----------7-------------------|
|---------------------------------|------------------------------------|

 17                                   18
|------------------------------------|-------------------------------|
|------------------------------------|-------------------------------|
|------------------------------------|-------------------------------|
|--10--------(10)\7p 5--7------------|--(7)--------------------------|
|------------------------------------|-------------------------------|
|------------------------------------|----------------8------10------|

 19                    |__3__|
|---------------------------------------------|
|---------------------------------------------|
|---------------------------------------------|
|--7----------(7)/ 10--9h10p(9\7)----------5--|
|---------------------------------------------|
|---------------------------------------------|

 20
|------------------------------------------|
|------------------------------------------|
|------------------------------------------|
|--(5/ 7)------------5--------(5/10)-------|
|------------------------------------------|
|------------------------------------------|

 21                                  |__3__|
|------------------------------------------------|
|------------------------------------------------|
|------------------------------------------------|
|--10--------------------------------------------|
|----------------8----8----------10--8h10p(8\7)--|
|------------------------------------------------|

 22                            23
|-----------------------------|-------------------------||
|-----------------------------|-------------------------||
|-----------------------------|-------------------------||
|-----------------------------|-------------------------||
|--8------------7-------------|--8----------------------||
|----------------------8------|-------------------------||



================================================================================
Riff 7a: Guitars 1 and 3 (Play 4 times, guitar 3 is clean) [Tempo = 90 BPM]
================================================================================


*Let notes ring throughout*

   |_____3_____|   |_____3_____|  |_____3_____|  |_____3_____|
||--------------------------------------------------------------|
||--------------------------------------------------------------|
||------------0--------------0--------------0--------------0----|
||-------6--------------6--------------6--------------6---------|
||--8--------------8--------------8--------------8--------------|
||--------------------------------------------------------------|

  |_____3_____|   |_____3_____|  |_____3_____| |_____3_____|
|--------------------------------------------------------------| |
|--------------------------------------------------------------| |
|------------0--------------0--------------0--------------0----|*|
|-------5--------------5--------------5--------------5---------|*|
|--6--------------6--------------6--------------6--------------| |
|--------------------------------------------------------------| |


Guitar 1's volume is much lower, and the distortion is more of a light "fuzz".



================================================================================
Riff 7b: Guitars 1 and 3 (Play until fade)
================================================================================


*Let notes ring throughout*

   |_____3____|   |_____3______|   |_____3______|   |_____3_____|
||------------------------------------------------------------------|
||------------------------------------------------------------------|
||-----------------0---(0)---------------------------0--------------|
||------------6----------------6----------------6---------6---------|
||--8---(8)-------------------------8---(8)--------------------8----|
||------------------------------------------------------------------|

  |_____3____|   |_____3______|   |_____3______|   |_____3_____|
|------------------------------------------------------------------| |
|------------------------------------------------------------------| |
|-----------------0---(0)---------------------------0--------------|*|
|------------5----------------5----------------5---------5---------|*|
|--6---(6)-------------------------6---(6)--------------------6----| |
|------------------------------------------------------------------| |



================================================================================
Riff 7c: Guitar 2 (Play once through, fade at end)
================================================================================


  1                                         |______3_______|
||-----------------------------------------------------------|
||-----------------------------------------------------------|
||-----------------------------------------------------------|
||--(5/   6)--------------------------------6----8----6h8p6--|
||-----------------------------------------------------------|
||-----------------------------------------------------------|

 2                |_____3_____|
|------------------------------------------------------------|
|------------------------------------------------------------|
|------------------------------------------------------------|
|--5--------------------(5/ 10)--10------------8--------5----|
|------------------------------------------------------------|
|------------------------------------------------------------|

 3                                         |______3_______|
|-----------------------------------------------------------|
|-----------------------------------------------------------|
|-----------------------------------------------------------|
|--(5/   6)--------------------------------6----8----6h8p6--|
|-----------------------------------------------------------|
|-----------------------------------------------------------|

 4            |____3____|             |______3______|
|-------------------------------------------------------|
|-------------------------------------------------------|
|-------------------------------------------------------|
|--5------------------------------------------8----6----|
|-----------------------6----6--------------------------|
|-------------------------------------------------------|

 5
 |_______3______|           |______3_____|    |_____3_____|
|-------------------------------------------------------------|
|-------------------------------------------------------------|
|-------------------------------------------------------------|
|--(5/   6)-----------------------------(5/   6)----5----6----|
|--------------8----------------------------------------------|
|-------------------------------------------------------------|

 6
   |_______3______| |__3__|
|---------------------------------------------------------------|
|---------------------------------------------------------------|
|---------------------------------------------------------------|
|--(6/10)---------------8h10p8--6----5----------------8----6----|
|---------------------------------------------------------------|
|---------------------------------------------------------------|

 7
   |_____3______|              |____3____|    |____3____|
|------------------------------------------------------------|
|------------------------------------------------------------|
|------------------------------------------------------------|
|--(5/   6)------------------------------5----6----5----6----|
|--------------8--------------------8------------------------|
|------------------------------------------------------------|

 8
   |_______3______| |__3__|
|---------------------------------------------------------------|
|---------------------------------------------------------------|
|---------------------------------------------------------------|
|--(6/10)---------------8h10p8--6----5--------------------------|
|---------------------------------------------------------------|
|---------------------------------------------------------------|

 9                                         |____3_________|
|-----------------------------------------------------------|
|-----------------------------------------------------------|
|-----------------------------------------------------------|
|--(5/   6)--------------------------------6----8----6h8p6--|
|-----------------------------------------------------------|
|-----------------------------------------------------------|

 10                              |_____3____|   |___3____|
|-------------------------------------------------------------|
|-------------------------------------------------------------|
|-------------------------------------------------------------|
|--5--------------------(5/ 10)--10--------8--------6----5----|
|-------------------------------------------------------------|
|-------------------------------------------------------------|

 11                                        |____3_________|
|-----------------------------------------------------------|
|-----------------------------------------------------------|
|-----------------------------------------------------------|
|--(5/   6)--------------------------------6----8----6h8p6--|
|-----------------------------------------------------------|
|-----------------------------------------------------------|

 12
|-------------------------------------------------------|
|-------------------------------------------------------|
|-------------------------------------------------------|
|--5----------------------------------------------------|
|-----------------------6----6--------6----6------------|
|-------------------------------------------------------|

 13
|------------------------------------------------------|
|------------------------------------------------------|
|------------------------------------------------------|
|--(5/   6)--------------------------------------------|
|------------------------------------------------------|
|------------------------------------------------------|

 14
|------------------------------------------------------|
|------------------------------------------------------|
|------------------------------------------------------|
|--(6\   5)--------------------------------------------|
|------------------------------------------------------|
|------------------------------------------------------|

 15
|------------------------------------------------------|
|------------------------------------------------------|
|------------------------------------------------------|
|--(5/   6)--------------------------------------------|
|------------------------------------------------------|
|------------------------------------------------------|

 16
|--------------------------------------------------------|
|--------------------------------------------------------|
|--------------------------------------------------------|
|--(6\   5)----------------------------------------------|
|------------------------------6------------6------------|
|--------------------------------------------------------|

 17
|------------------------------------------------------|
|------------------------------------------------------|
|------------------------------------------------------|
|--(5/   6)--------------------------------------------|
|------------------------------------------------------|
|------------------------------------------------------|

 18
|------------------------------------------------------|
|------------------------------------------------------|
|------------------------------------------------------|
|--(6\   5)--------------------------------------------|
|------------------------------------------------------|
|------------------------------------------------------|

 19
|------------------------------------------------------|
|------------------------------------------------------|
|------------------------------------------------------|
|--(5/   6)--------------------------------------------|
|------------------------------------------------------|
|------------------------------------------------------|

 20
|--------------------------------------------------------||
|--------------------------------------------------------||
|--------------------------------------------------------||
|--(6\   5)----------------------------------------------||
|------------------------------6------------6------------||
|--------------------------------------------------------||



================================================================================
End
================================================================================


Tab summary:        Riff 1a x 4 + Riff 1b x 1
                    Riff 2 x 2
                    Riff 3a x 4 + Riff 3b x 1
                    Riff 4a x 9 + Riff 4b x 4.5
                    Riff 5a x 4 + Riff 5b x 4
                    Riff 6a x 4 + Riff 6b x 1
                    Riff 7a x 4
                    Riff 7b Indefinitely + Riff 7c x 1

                    END



-----------------------
Corrections (29/10/05):
-----------------------

* Fixed incorrect slide directions
* Minor adjustments to layout


-----------------------
Corrections (18/10/05):
-----------------------

* Corrected Riff 4b
* Minor adjustments to layout


-----------------------
Corrections (28/04/05):
-----------------------

* Fixed Riff 1a


-----------------------
Corrections (24/04/05):
-----------------------

* Completely re-transposed most of the song for easier play
* Added fills for riff 1a


-----------------------
Corrections (31/03/05):
-----------------------

* Corrected slide directions
* Minor adjustments to layout
* Minor articulation adjustments

  Visit MetalTabs.com for more metal tablature

bottom separator

Contact Us | Privacy Policy | Disclaimer | Legal Notice
Copyright © 2001-2014 MetalTabs.com. All Rights Reserved.