top separator

Home

Forum

FAQ

Contact Us

Link to Us

MetalTabs.com logo

Bands

0-9

A

B

C

D

E

F

G

H

I

J

K

L

M

N

O

P

Q

R

S

T

U

V

W

X

Y

Z

Mtley Cre - "Looks that Kill" Guitar Tab

Plain Text Version
More Mtley Cre Tabs

Hits: 7710
Rated: 3.00 out of 5 (1 vote)
Updated: 2005-03-29 14:38:57

By:


#----------------------------------PLEASE NOTE---------------------------------#
#This file is the author's own work and represents their interpretation of the #
#song. You may only use this file for private study, scholarship, or research. #
#Unless specified otherwise, this is NOT an official tab from the band members.#
#------------------------------------------------------------------------------#

  Visit MetalTabs.com for more metal tablature
  
Band:  Motley Crue
Album: Shout At The Devil
Song:  Looks That Kill

Copyright (c) Hip-o Records 2003

Transcribed By: toofastforlove70
Email:          fbdude7070@charter.net


.  - palm mute           /  - slide up to
\  - slide down to       ~  - vibrato
h  - hammer on           b  - Bend
p  - pull off            Suffixes for bend
t  - tap                 f  - full bend    h - half bend
ph - pinched harmonic    q  - quarter bend t - tap bend
*  - see comment         ^  - Hold bend    r release bend
x  - Stuccatto           ~  - vibrato bend
,  - slight palm mute    () - ghost note, sustained note
"  - tremolo note        <> - Trill

Tuned Down one whole step to DGCFAD


Intro & Main Riff  all open As are palm-muted
D-----------------------------------
A-----------------------------------
F------9-----9-----7-----7-----7/6--
C------7-----7-----5-----5-----5/4--
G--0-0---0-0---0-0---0-0---0-0-----
D-----------------------------------

Pre-Chorus
D-----------------------------------------------------------
A-----------------------------------------------------------
F------9-----9-----7-----7-----7/6--5(5)-5-5--5-5----------
C------7-----7-----5-----5-----5/4--3(3)-3-3--3-3----------
G-0-0---0-0---0-0---0-0---0-0------------------------------
D-----------------------------------------------------------

Chorus
D-------------------------------------------------
A-------------------------------------------------
F-------5--5---5--5---5--5--5-5--5-5-5------------
C--2----2--3---3--4---4--5--3-3--3-3-3------------
G----0-------0------0-----------------------------
D-------------------------------------------------

D-------------------------------------------------
A-------------------------------------------------
F-------5--5---5--5---5--5--5-5--5-5-5/7----------
C-0--2--2--3---3--4---4--5--3-3--3-3-3/5----------
G------0-----0------0-----------------------------
D-------------------------------------------------





Bridge
D---------------------------------------------------------
A------------13-12------------10--------------------------
F------------12-12------------10--------------------------
C--14-14-----------12-12-12-------10-10-----12-12---------
G--12-11-10--------10--9-9--0-----8--7--0--10--9---------
D---------------------------------------------------------


Main Riff  all open As are palm-muted
D-----------------------------------
A-----------------------------------
F------9-----9-----7-----7-----7/6--
C------7-----7-----5-----5-----5/4--
GG-0-0---0-0---0-0---0-0---0-0-----
D-----------------------------------

Pre-Solo
D-------------------------------------------------
A-------------------------------------------------
F------9------------------------------------------
C------7------------------------------------------
G-0-0---0-0--5-5-5-5-5-5-5-5-5-5-5-5-5-5-5-------
D-------------3-3-3-3-3-3-3-3-3-3-3-3-3-3-3-------

Solo


Main Riff  all open As are palm-muted
D-----------------------------------
A-----------------------------------
F------9-----9-----7-----7-----7/6--
C------7-----7-----5-----5-----5/4--
GG-0-0---0-0---0-0---0-0---0-0-----
D-----------------------------------


How The Song Is Played:

Intro & Main Riff  x12
Pre-Chorus
Chorus
Main Riff  x8
Pre-Chorus
Chorus
Main Riff  x2
Bridge
Main Riff
Pre-Solo
Main Riff  x11
Pre-Chorus
Chorus
Main Riff (fades out)

  Visit MetalTabs.com for more metal tablature

bottom separator

Contact Us | Privacy Policy | Disclaimer
Copyright © 2001-2014 MetalTabs.com. All Rights Reserved.