top separator

Home

Forum

What's New

Submit a Tab

FAQ

Links

Contact Us

Link to Us

MetalTabs.com logo

Bands

0-9

A

B

C

D

E

F

G

H

I

J

K

L

M

N

O

P

Q

R

S

T

U

V

W

X

Y

Z

Search

What

Where
 

Gorerotted - "Can't Fit Her Limbs In The Fridge" Guitar Tab

Plain Text Version
More Gorerotted Tabs

Hits: 3738
Rated: 4.00 out of 5 (1 vote)
Updated: 2005-03-29 14:37:40

 

By:

Yura

sendpm.gif

email.gif

Important note
This tab is available online because we obtained explicit permission from Gorerotted or their label.


#----------------------------------PLEASE NOTE---------------------------------#
#This file is the author's own work and represents their interpretation of the #
#song. You may only use this file for private study, scholarship, or research. #
#Unless specified otherwise, this is NOT an official tab from the band members.#
#------------------------------------------------------------------------------#

  Visit MetalTabs.com for more metal tablature
  
--- GOREROTTED ---
                   "Can't Fit Her Limbs In The Fridge"
                     From album: "Only Tools And Corpses"
                     Copyright Metal Blade Records 2003 
                     Transcribed by: Yura Kowalchuk
                     Contact:[yura@grindcore.net]
                             [yura_kowalchuk@mail.ru]
                    http://brutaltabs.musica.mustdie.ru

                            TABULATURE LEGEND:
                   " - tremolo             h - hammer on
                   ~ - vibrato             \ - slide down
                   p - pull off            / - slide down
                  tr - trill               ^ - pinch harmonics
                   = - sustained note      b - bend string
                p.m. - palm muting         t - tapping

TUNING: D [D, G, C, F, A, D]

[Intro]
-|--------------------------|
-|--------------------------|
-|--------------------------|
-|--------------------------|
-|-8-----8-----8-----8------|
-|-6-----6-----6-----6------|
   .     .     .     .

[Riff 1 (x3)]
-|------------------------------|
-|------------------------------|
-|------------------------------|
-|---------------------------8"-|
-|----------4"------7"-6"-7"----|
-|-6"-3"-6"----[x7]-------------|

[Riff 2a (x4)]
-|-------------------------------|-------------------------------|
-|-------------------------------|-------------------------------|
-|-------------------------------|-------------------------------|
-|-------------------------------|-------------------------------|
-|-5"-6"-5"-4"-5"-6"-6-7-6-5-6-7-|-5"-6"-5"-4"-5"-6"-6-7-6-5-6-7-|
-|-------------------4-5-4-3-4-5-|-------------------4-5-4-3-4-5-|
                                                     . . . . . .


[Riff 3 (x4)]
-|---------------------------------|
-|---------------------------------|
-|---------------------------------|
-|---------------------------------|
-|-----2h5-3h6---------2h5-----3h6-|
-|-1h4---------2h5-1h4-----2h5-----|

[RIFF 1] [INTRO]

[Outro 1]
-|----------------------|
-|----------------------|
-|------------------^---|
-|------------------3~~-|
-|----------4"----------|
-|-6"-3"-6"----[x3]-----|


[Riff 4 /pick tapping/ (x4)]
-|---------------------------------------|
-|---------------------------------------|
-|---------------------------------------|
-|---------------------------------------|
-|---------------------------------------|
-|-1-t-4----------3-t-6------6-t-9-------|
   \___/.......   \___/....  \___/....

[Riff 5 (x2)]
-|------------------------------------------------------|
-|------------------------------------------------------|
-|------------------------------------------------------|
-|------------------------------------------------------|
-|------------------------------------------------------|
-|-0-1-4-0-1-4-0-4-[x2]-0-3-6-0-3-6-0-6-0-6-9-0-6-9-0-9-|

[RIFF 5 /palm muting/ (x2)]

[Outro 2]
-|-------------|
-|-------------|
-|-------------|
-|----------8"-|
-|-7"-6"-7"----|
-|-------------|

[Riff 2b (x4)]
-|-------------------------------|-------------------------------|
-|-------------------------------|-------------------------------|
-|-------------------------------|-------------------------------|
-|-4"-5"-4"-3"-4"-5"-------------|-4"-5"-4"-3"-4"-5"-------------|
-|-------------------6-7-6-5-6-7-|-------------------6-7-6-5-6-7-|
-|-------------------4-5-4-3-4-5-|-------------------4-5-4-3-4-5-|
 |                               |                   . . . . . . |
-|-------------------------------|-------------------------------|
-|-------------------------------|-------------------------------|
-|-------------------------------|-------------------------------|
-|-------------------------------|-------------------------------|
-|-5"-6"-5"-4"-5"-6"-6-7-6-5-6-7-|-5"-6"-5"-4"-5"-6"-6-7-6-5-6-7-|
-|-------------------4-5-4-3-4-5-|-------------------4-5-4-3-4-5-|
                                                     . . . . . .

END OF SONG

  Visit MetalTabs.com for more metal tablature

bottom separator

Contact Us | Privacy Policy | Disclaimer | Legal Notice
Copyright © 2001-2014 MetalTabs.com. All Rights Reserved.