top separator

Home

Forum

What's New

Submit a Tab

FAQ

Links

Contact Us

Link to Us

MetalTabs.com logo

Bands

0-9

A

B

C

D

E

F

G

H

I

J

K

L

M

N

O

P

Q

R

S

T

U

V

W

X

Y

Z

Search

What

Where
 

Disarmonia Mundi - "Swallow The Flame" Guitar Tab

Plain Text Version
More Disarmonia Mundi Tabs

Hits: 4855
Rated: 4.33 out of 5 (3 votes)
Updated: 2005-03-29 13:54:59

 

By:

Kalmahswamp

sendpm.gif

email.gif

Important note
This tab is available online because we obtained explicit permission from Disarmonia Mundi or their label.


#----------------------------------PLEASE NOTE---------------------------------#
#This file is the author's own work and represents their interpretation of the #
#song. You may only use this file for private study, scholarship, or research. #
#Unless specified otherwise, this is NOT an official tab from the band members.#
#------------------------------------------------------------------------------#

  Visit MetalTabs.com for more metal tablature
  
Band:  Disarmonia Mundi
Album: Fragments of D Generation
Song:  Swallow the Flames

Copyright (c)  Scarlet Records 2004

Transcribed By: Paul Sullivan
Email:          kalmahswamp@yahoo.com

(fret #'s)- mute
h- hammer on
[#]- pinch harmonic
p- pull off
b- bend up a note, then back down to original note
{#}- trem pick note

Tuning C A D G B E

Part 1
E-------------------------------------------------------------------|
B-------------------------------------------------------------------|
G-------------------------------------------------------------------|
D-------------------------------------------------------------------|
A-------------------------------------------------------------------|
C-11-0-0-0-11-0-0-0-11-0-0-0-11-0-0-0-11-0-0-0-(0-0-0--0-0-0)-------|

Part 2
E---------------------------------------------------------------------
B---------------------------------------------------------------------
G---------------------------------------------------------------------
D---------------------------------------------------------------------
A-3-6-2-5-3---------------3-6-2-5-6-5-8-6----3-6-2-5-3----------------
C-----------0-0-0-0-0-0-0------------------------------0-0-0-0-0-0-0--

E------------------------------------|
B------------------------------------|
G------------------------------------|
D------------------------------------|
A-3-6-2-5----------------------------|
C---------(0-0-0--0-0-0--0-0-0)------|

Part 3
E----------------------------------------------------------------------|
B----------------------------------------------------------------------|
G----------------------------------------------------------------------|
D-----------------------------------------------------------------{3}--|
A-3-6-2--3-6-2--3-6-2-3-----------------------3-6-2--3-6-2--3-6-2------|
C-----------------------(0-0-0--0-0-0--0-0-0)--------------------------|


Part 4
E-------------------------------------------------------------------|
B-------------------------------------------------------------------|
G-------------------------------------------------------------------|
D-3-------------3-2-------------3-------------3-2-------------------|
A-5-------------5-4-------------5-------------5-4-------------------|
C---0-0-0-0-0-0-----0-0-0-0-0-0---0-0-0-0-0-0-----0-0-0-0-0-0-------|

Part 5
E-------------------------------------------------------------------|
B-------------------------------------------------------------------|
G-------------------------------------------------------------------|
D-------------------------------------------------------------------|
A--9---9--9--9--9---2--2-2-2-2---5--5-5-5-5--5--5-5-5--4--4-4-4-----|
C-11--11-11-11-11---4--4-4-4-4---7--7-7-7-7--7--7-7-7--6--6-6-6-----|

PART 2

PART 3

PART 4

Part 6
E--------------------------------------------------------------
B--------------------------------------------------------------
G--------------------------------------------------------------
D--------------------------------------------------------------
A-----------2-----------2-----------2-----------5h6------------
C-(0-0-0-0)---(0-0-0-0)---(0-0-0-0)---(0-0-0-0)----------------

E-------------------------------------------------------------------|
B-------------------------------------------------------------------|
G-------------------------------------------------------------------|
D-------------------------------------------------------------------|
A-----------2-----------2-----------6-6-6-6-5-5-5-5-5-5-5-5---------|
C-(0-0-0-0)---(0-0-0-0)---(0-0-0-0)---------------------------------|

Part 7
E-------------------------------------------------------------------|
B-------------------------------------------------------------------|
G-------------------------------------------------------------------|
D-----4-4-----4-4-----4-4-----4-4-----4-4-----4-4-----4-4-----------|
A-2-2---------------------0-0-----0-0-------------------------------|
C---------7-7-----7-7---------------------7-7-----7-7---------------|

Part 8
E---------------------------------|
B---------------------------------|
G-----7-6-4-----------------------|
D-----------7-5------5------------|
A-4-5-----------7-9---------------|
C-6-7-----------------------------|

PART 5

Part 9
E--------------------------------------------------------------|
B--------------------------------------------------------------|
G--------------------------------------------------------------|
D-----------------------8-8--------------------------8-8-------|
A-0-X-5-3-2-0-[2]-0-X---8-8----0-X-5-3-2-0-[2]-0-X---8-8-------|
C-0-X-------------0-X-0-0-0----0-X-------------0-X-0-0-0-------|

Part 10
E-------------------------------------------------------------------|
B-------------------------------------------------------------------|
G-------------------------------------------------------------------|
D-------------------------------------------------------------------|
A-0---------------------5-3-2-0-2--0--------------------8-------8---|
C-0-0-0-0--0-0-0--0-0-0------------0-0-0-0--0-0-0-0-0-0-0-0-0-0-0---|

PART 9

PART 2 (as rythem)

SOLO:
E---------------------3-------------------------3------------------------
B---------------3h5h7---7p5p3-------------3h5h7---7p5p3-------12-14-15---
G-4-6-7-7-4h6h7---------------7p6p4-4h6h7---------------7p6p4------------
D------------------------------------------------------------------------
A------------------------------------------------------------------------
C------------------------------------------------------------------------

E-b14-12---------------------------------------------|
B--------15-14-12------------------------------------|
G-----------------14-12-11---------------------------|
D--------------------------14-11-11h12---------------|
A----------------------------------------------------|
C----------------------------------------------------|

PART 3

PART 4

PART 5

SOLO:
E----5------------------------------------------------------10h13p10------------
B7-5---7-------------------------------------------------10----------10---------
G--------b7--------------1-3h4p3p1--------------------12----------------12------
D----------8-6-5-------------------4p3p1p0----------12---------------------12---
A----------------8-6-5-2--------------------2-0---10--------------------------10
C-----------------------------------------------7-------------------------------

E----------13h16p13-------------------------------------------14------------|
B-------13----------13-------14-15-------------------------14----14---------|
G----15----------------15----------16-------------------16----------16------|
D-15----------------------15----------16-14----------16----------------16---|
A-------------------------------------------17-14-14------------------------|
C---------------------------------------------------------------------------|

  Visit MetalTabs.com for more metal tablature

bottom separator

Contact Us | Privacy Policy | Disclaimer | Legal Notice
Copyright © 2001-2014 MetalTabs.com. All Rights Reserved.