top separator

Home

Forum

What's New

Submit a Tab

FAQ

Links

Contact Us

Link to Us

MuSpy.com

MetalTabs.com logo

Bands

0-9

A

B

C

D

E

F

G

H

I

J

K

L

M

N

O

P

Q

R

S

T

U

V

W

X

Y

Z

Search

What

Where
 

Norther - "Blackhearted" Guitar Tab

Plain Text Version
More Norther Tabs

Hits: 3335
Rated: 3.50 out of 5 (2 votes)
Updated: 2005-03-24 13:36:31

 

By:

ville the reaper

sendpm.gif

email.gif

Important note
This tab is available online because we obtained explicit permission from Norther or their label.


#----------------------------------PLEASE NOTE---------------------------------#
#This file is the author's own work and represents their interpretation of the #
#song. You may only use this file for private study, scholarship, or research. #
#Unless specified otherwise, this is NOT an official tab from the band members.#
#------------------------------------------------------------------------------#

  Visit MetalTabs.com for more metal tablature
  
Band:  NORTHER
Album: Mirror Of Madness
Song:  Blackhearted

Copyright (c)  SPINEFARM 2003
Version 1.0 - 22.3.2005

Transcribed By: ville the reaper
Email:          kuolema90@luukku.com


.  - palm mute           /  - slide up to
\  - slide down to       ~  - vibrato
h  - hammer on           b  - Bend
p  - pull off            Suffixes for bend
t  - tap                 f  - full bend    h - half bend
ph - pinched harmonic    q  - quarter bend t - tap bend
*  - see comment         ^  - Hold bend    r release bend
x  - Stuccatto           ~  - vibrato bend
,  - slight palm mute    () - ghost note, sustained note
"  - tremolo note        <> - Trill

Tuning E A D G B E



petes guitar
intro

E|---------------------------------------------------------||
B|--------------------s------------------------------------||
G|9------9------9----912-12----------12----------12--------||
D|7-7777-7-7777-7-77-710-10-10101010-10-10101010-10-1010---||
A|---------------------------------------------------------||
E|---------------------------------------------------------||



E|--------------------------------------------------||
B|-s------------------------------------------------||
G|129------9------9----5------7------7--------------||
D|107-7777-7-7777-7-77-7-7777-7-7777-7-77-----------||
A|--------------------------------------------------||
E|--------------------------------------------------|| x4



  let ring
E|----------------||
B|----------------||
G|9---------------||
D|7---------------||
A|----------------||
E|----------------||


  piano riff

 end of piano riff
E|----------------------------------||
B|----------------------------------||
G|----------------------------------||
D|7---------------------------------||
A|5------------3--------------------||
E|-------------1--------------------||


intro x2



  end of intro riff
E|----------------||
B|----------------||
G|5----7--7-------||
D|5----7--7-------||
A|----------------||
E|----------------||


verse

E|-----------------------------------------------||
B|-----------------------------------------------||
G|-----------------------------------------------||
D|9------9------9----10------10------10----------||
A|7-7777-7-7777-7-77-7--7777-7--7777-7--77-------||
E|-----------------------------------------------||

  pm........................
E|-----------------------------------------||
B|-----------------------------------------||
G|-----------------------------------------||
D|55555555555555---------------------------||
A|---------------555555555555--------------||
E|-----------------------------------------||

E|-----------------------------------------------||
B|-----------------------------------------------||
G|-----------------------------------------------||
D|9------9------9----10------10------10----------||
A|7-7777-7-7777-7-77-7--7777-7--7777-7--77-------||
E|-----------------------------------------------||



E|------------------------------------------------------||
B|------------------------------------------------------||
G|9-----------9-----------9-------7------7------7-------||
D|10-10101010-10-10101010-10-1010-7-7777-7-7777-7-77----||
A|------------------------------------------------------||
E|------------------------------------------------------||


E|-----------------------------------------------||
B|-----------------------------------------------||
G|-----------------------------------------------||
D|9------9------9----10------10------10----------||
A|7-7777-7-7777-7-77-7--7777-7--7777-7--77-------||
E|-----------------------------------------------||

  pm........................
E|-----------------------------------------||
B|-----------------------------------------||
G|-----------------------------------------||
D|55555555555555---------------------------||
A|---------------555555555555--------------||
E|-----------------------------------------||

E|-----------------------------------------------||
B|-----------------------------------------------||
G|-----------------------------------------------||
D|9------9------9----10------10------10----------||
A|7-7777-7-7777-7-77-7--7777-7--7777-7--77-------||
E|-----------------------------------------------||


                                   let ring
E|------------------------------------------------------||
B|------------------------------------------------------||
G|9-----------9-----------9--------7--------------------||
D|10-10101010-10-10101010-10-1010--7--------------------||
A|------------------------------------------------------||
E|------------------------------------------------------||


chorus



E|--------------------------------------------------------||
B|--------------------------------------------------------||
G|-----------------7--------------------------------------||
D|7-------5--------7----------3---------------------------||
A|7-------5--------5----------3---------------------------||
E|5-------3-------------------1111111111111111------------|| x4


intro x2

pete solo


   p         p  p  p  p  p   p         p p  p p  p
E|128------8128108128108128-107------71078710787107---------||
B|---10-10---------------------8---8------------------------||
G|-----9-------------------------7--------------------------||
D|----------------------------------------------------------||
A|----------------------------------------------------------||
E|----------------------------------------------------------||


  p         p p p s                   s
E|85------58575857--221922-191619-57540--------------------||
B|--6---6--------------------------------------------------||
G|----5----------------------------------------------------||
D|---------------------------------------------------------||
A|---------------------------------------------------------||
E|---------------------------------------------------------||



                                          b        s
E|----------------------------------1215-15----15----------||
B|----------------------------121315--------------13-------||
G|------------------12----1214-----------------------------||
D|------12----121415--1415---------------------------------||
A|121415--1415---------------------------------------------||
E|---------------------------------------------------------||


                                               s
E|121110121110---------------------------------------------||
B|------------131210131210---------------------------------||
G|------------------------1210912109-----------------------||
D|----------------------------------1210912109-------------||
A|---------------------------------------------12----------||
E|---------------------------------------------------------||

kride solo backing guitar



E|----------------------------------------------------------------||
B|----------------------------------------------------------------||
G|----------------------------------------------------------------||
D|-------------------------------5--------------------------------||
A|7------------------------------33333333333333333333333333333----||
E|5555555555555555555555555555555---------------------------------||



E|----------------------------------------------------------------||
B|----------------------------------------------------------------||
G|----------------------------------------------------------------||
D|----------------------------------------------7----9--9---------||
A|3---------------------------------------------5----7--7---------||
E|1111111111111111111111111111133333333333333---------------------||


verse

chorus

keyboard solo



E|----------------||
B|----------------||
G|----------------||
D|7-7--7-7--------||
A|7-7--7-7--------||
E|5-5--5-5--------||x4





E|----------------------------------------------------------------||
B|----------------------------------------------------------------||
G|----------------------------------------------------------------||
D|7-7--7-7--7------------7-7--7-7---------------------------------||
A|7-7--7-7--5------------5-5--5-5---7-----------------------------||
E|5-5--5-5--------------------------5-----------------------------||


                                                  ah
E|----------------------------------------------------------------||
B|----------------------------------------------------------------||
G|7-5--5-4--5------------5-4--4-2---5-----------------------------||
D|7-7--7-5--5------------5-5--5-5---4-------------5~--------------||
A|----------------------------------------------------------------||
E|----------------------------------------------------------------||


E|----------------------------------------------------------------||
B|----------------------------------------------------------------||
G|----------------------------------------------------------------||
D|7-7--7-7--7------------7-7--7-7---------------------------------||
A|7-7--7-7--5------------5-5--5-5---7-----------------------------||
E|5-5--5-5--------------------------5-----------------------------||


                                         two guitars
E|----------------------------------------------------------------||
B|----------------------------------------------------------------||
G|7-5--5-4--5------------5-4--4-2---5------------------12---------||
D|7-7--7-5--5------------5-5--5-5---4------------121415-----------||
A|----------------------------------------121415------------------||
E|----------------------------------------------------------------||


                                       E|-------------------||
                                       B|-------------12----||
                                       G|------101214-------||
                                       D|101214-------------||
                                       A|-------------------||
                                       E|-------------------||


chorus

E|------------------------------------------------------------------||
B|------------------------------------------------------------------||
G|------------------------------------------------------------------||
D|---------------------------------7--------------------------------||
A|7---------------5----------------555555555555555-3----------------||
E|555555555555555-3333333333333333-----------------1111111111111----||x3


E|-----------------------------------------------------||
B|-----------------------------------------------------||
G|-----------------------------------------------------||
D|---------------------------------7-------------------||
A|7---------------5----------------555555555555555-----||
E|555555555555555-3333333333333333---------------------||









               let ring
E|------------------------------------||
B|------------------------------------||
G|------------------------------------||
D|3-----5-5----7----------------------||
A|3-----5-5----7----------------------||
E|1-----3-3----5----------------------||

end



krides guitar

intro



E|----------------------------------------------------------------||
B|----------------------------------------------------------------||
G|5------5------4----5------7------7----5------5------4-----------||
D|7-7777-7-7777-5-55-3-3333-5-5555-5-55-7-7777-7-7777-5-----------||
A|----------------------------------------------------5-----------||
E|----------------------------------------------------------------||



              b.ah.
E|--------------------------------||
B|--------------------------------||
G|--------------------------------||
D|3-------------------------------||
A|3-----------7---7---------------||
E|1-------------------------------||


E|----------------------------------------------------------------||
B|----------------------------------------------------------------||
G|5------5------4----5------7------7----5------5------4-----------||
D|7-7777-7-7777-5-55-3-3333-5-5555-5-55-7-7777-7-7777-5-----------||
A|----------------------------------------------------5-----------||
E|----------------------------------------------------------------||




E|--------------------------------||
B|--------------------------------||
G|--------------------------------||
D|5---------7---------------------||
A|5---------5---------------------||
E|-------33-----------------------||



E|----------------------------------------------------------------||
B|----------------------------------------------------------------||
G|5------5------4----5------7------7----5------5------4-----------||
D|7-7777-7-7777-5-55-3-3333-5-5555-5-55-7-7777-7-7777-5-----------||
A|----------------------------------------------------5-----------||
E|----------------------------------------------------------------||



                ah.
E|--------------------------------||
B|--------------------------------||
G|--------------------------------||
D|3-------------------------------||
A|3--------------5----------------||
E|1--------3333-------------------||



E|----------------------------------------------------------------||
B|----------------------------------------------------------------||
G|5------5------4----5------7------7----5------5------4-----------||
D|7-7777-7-7777-5-55-3-3333-5-5555-5-55-7-7777-7-7777-5-----------||
A|----------------------------------------------------5-----------||
E|----------------------------------------------------------------||




E|--------------------------------||
B|--------------------------------||
G|----------7---------------------||
D|5---------7---------------------||
A 5---------5---------------------||
E|3-------------------------------||



  let ring
E|----------------||
B|----------------||
G|----------------||
D|7---------------||
A|7---------------||
E|5---------------||


piano riff

 end of piano riff
E|----------------------------------||
B|----------------------------------||
G|----------------------------------||
D|7---------------------------------||
A|5------------3--------------------||
E|-------------1--------------------||


intro x2

 end of intro riff
E|----------------||
B|----------------||
G|----------------||
D|5----7--7-------||
A|3----5--5-------||
E|----------------||



verse



E|-----------------------------------------------||
B|-----------------------------------------------||
G|-----------------------------------------------||
D|2------4------5----5------4------5-------------||
A|2------2------2----7-7777-7-7777-7-77----------||
E|0-0000-0-0000-0-00-----------------------------||




  pm..............................
E|-----------------------------------------------||
B|-----------------------------------------------||
G|-----------------------------------------------||
D|55779955779955774455774455774455---------------||
A|-----------------------------------------------||
E|-----------------------------------------------||



E|-----------------------------------------------||
B|-----------------------------------------------||
G|-----------------------------------------------||
D|2------4------5----5------4------5-------------||
A|2------2------2----7-7777-7-7777-7-77----------||
E|0-0000-0-0000-0-00-----------------------------||




E|---------------------------------------------------||
B|---------------------------------------------------||
G|5------5------5----2------2------2-----------------||
D|5-5555-5-5555-5-55-4-4444-4-4444-4-44--------------||
A|---------------------------------------------------||
E|---------------------------------------------------||


E|-----------------------------------------------||
B|-----------------------------------------------||
G|-----------------------------------------------||
D|2------4------5----5------4------5-------------||
A|2------2------2----7-7777-7-7777-7-77----------||
E|0-0000-0-0000-0-00-----------------------------||




  pm...............................
E|-----------------------------------------------||
B|-----------------------------------------------||
G|-----------------------------------------------||
D|7777779999999999777777-------------------------||
A|-----------------------9999999999--------------||
E|-----------------------------------------------||



E|-----------------------------------------------||
B|-----------------------------------------------||
G|-----------------------------------------------||
D|2------4------5----5------4------5-------------||
A|2------2------2----7-7777-7-7777-7-77----------||
E|0-0000-0-0000-0-00-----------------------------||



                      let ring
E|---------------------------------------------------||
B|---------------------------------------------------||
G|5------5------5------------------------------------||
D|5-5555-5-5555-5-55--4------------------------------||
A|--------------------5------------------------------||
E|---------------------------------------------------||



chorus
E|----------12----------------------------------------------------||
B|13----15------15----13-12--------------13--15-13-12-----12------||
G|--------------------------14-------------------------14---------||
D|---------------------------------12-----------------------------||
A|----------------------------------------------------------------||
E|----------------------------------------------------------------||x4



intro x2


pete solo backing guitar


E|----------------------------------------------------------------||
B|----------------------------------------------------------------||
G|----------------------------------------------------------------||
D|7-------------5-----------------3-------------------2-----------||
A|7-------------5-----------------3-------------------2-----------||
E|5-------------3-----------------1-------------------0-----------||



E|----------------------------------------------------------------||
B|----------------------------------------------------------------||
G|----------------------------------------------------------------||
D|----------------------------------------------------------------||
A|3---------------5----------------7------------------------------||
E|111111111111111133333333333333333555555555555555555555555555555-||


kride solo



E|----------------------------------------------------------------||
B|----------------------------------------------------------------||
G|5-------4--------7------5----4----------------------------------||
D|-----------------------------------5------7------9-----5--------||
A|3-------2--------5------3----2----------------------------------||
E|-----------------------------------3------5------7-----3--------||



E|----------------------------------------------------------------||
B|------------1213151312------------------------------------------||
G|------101214----------141210------------------------------------||
D|101214----------------------1412109101291012--------------------||
A|--------------------------------------------12108---------------||
E|----------------------------------------------------------------||


                                fast picking
E|------------------------15---201917----------17------------------------||
B|------------------151718-----------2019171920--201917------------------||
G|------------141617-----------------------------------191716------------||
D|------141517-----------------------------------------------191715------||
A|141517------------------------------------------------------------17---||
E|-----------------------------------------------------------------------||


verse



E|-----------------------------------------------||
B|-----------------------------------------------||
G|-----------------------------------------------||
D|2------4------5----5------4------5-------------||
A|2------2------2----7-7777-7-7777-7-77----------||
E|0-0000-0-0000-0-00-----------------------------||




  pm..................................
E|-----------------------------------------------||
B|-----------------------------------------------||
G|-----------------------------------------------||
D|557710107710109977994455774455774455-----------||
A|-----------------------------------------------||
E|-----------------------------------------------||



E|-----------------------------------------------||
B|-----------------------------------------------||
G|-----------------------------------------------||
D|2------4------5----5------4------5-------------||
A|2------2------2----7-7777-7-7777-7-77----------||
E|0-0000-0-0000-0-00-----------------------------||




E|---------------------------------------------------||
B|---------------------------------------------------||
G|5------5------5----2------2------2-----------------||
D|5-5555-5-5555-5-55-4-4444-4-4444-4-44--------------||
A|---------------------------------------------------||
E|---------------------------------------------------||


E|-----------------------------------------------||
B|-----------------------------------------------||
G|-----------------------------------------------||
D|2------4------5----5------4------5-------------||
A|2------2------2----7-7777-7-7777-7-77----------||
E|0-0000-0-0000-0-00-----------------------------||




  pm..............................
E|-----------------------------------------------||
B|-----------------------------------------------||
G|-----------------------------------------------||
D|77777799999910101010999999777777--p------------||
A|---------------------------------109-----------||
E|-----------------------------------------------||



E|-----------------------------------------------||
B|-----------------------------------------------||
G|-----------------------------------------------||
D|2------4------5----5------4------5-------------||
A|2------2------2----7-7777-7-7777-7-77----------||
E|0-0000-0-0000-0-00-----------------------------||



                      let ring
E|---------------------------------------------------||
B|---------------------------------------------------||
G|5------5------5------------------------------------||
D|5-5555-5-5555-5-55--4------------------------------||
A|--------------------5------------------------------||
E|---------------------------------------------------||



chorus x4


keyboard solo



E|----------------||
B|----------------||
G|----------------||
D|7-7--7-7--------||
A|7-7--7-7--------||
E|5-5--5-5--------||x4





E|---------------------------------------------------------------||
B|---------------------------------------------------------------||
G|---------------------------------------------------------------||
D|7-7--7-7--------------7-7--7-7---------------------------------||
A|7-7--7-7--5-----------5-5--5-5---7-----------------------------||
E|5-5--5-5--5----------------------5-----------------------------||




E|----------------------------------------------------------------||
B|----------------------------------------------------------------||
G|----------------------------------------------------------------||
D|7-7--7-7--5---------5-5--5-5--5---------------------------------||
A|5-5--5-5--3---------3-3--3-3--5---------------------------------||
E|------------------------------3---------------------------------||


             pm.............                    ah.    ah.
E|---------------------------------------------------------------||
B|---------------------------------------------------------------||
G|---------------------------------------------------------------||
D|7-7--7-7--------------------7-7--7-7----------b-----b----------||
A|7-7--7-7--5-----------------5-5--5-5---7------7-----7----------||
E|5-5--5-5--5-5-5-5-5-5-5-5--------------5---55----55------------||

             pm............
E|----------------------------------------------------------------||
B|----------------------------------------------------------------||
G|----------------------------------------------------------------||
D|7-7--7-7--5------------------5-5--5-5--5------------------------||
A|5-5--5-5--3-3-3-3-3-3-3-3----3-3--3-3--5------------------------||
E|---------------------------------------3------------------------||

chorus
E|----------12----------------------------------------------------||
B|13----15------15----13-12--------------13--15-13-12-----12------||
G|--------------------------14-------------------------14---------||
D|---------------------------------12-----------------------------||
A|----------------------------------------------------------------||
E|----------------------------------------------------------------||x3

               ah.
E|---------12-15-----17-15--17----12-------------------------------||
B|13----15----------------------------15---13-15-13-12-------------||
G|-----------------------------------------------------14-12-------||
D|------------------------------------------------------------14~--||
A|-----------------------------------------------------------------||
E|-----------------------------------------------------------------||

end

  Visit MetalTabs.com for more metal tablature

bottom separator

Contact Us | Privacy Policy | Disclaimer | Legal Notice
Copyright © 2001-2014 MetalTabs.com. All Rights Reserved.