top separator

Home

Forum

FAQ

Contact Us

Link to Us

MetalTabs.com logo

Bands

0-9

A

B

C

D

E

F

G

H

I

J

K

L

M

N

O

P

Q

R

S

T

U

V

W

X

Y

Z

Mtley Cre - "Knock 'em Dead, Kid" Guitar Tab

Plain Text Version
More Mtley Cre Tabs

Hits: 3249
Rated: 3.00 out of 5 (1 vote)
Updated: 2005-03-24 13:28:11

By:


#----------------------------------PLEASE NOTE---------------------------------#
#This file is the author's own work and represents their interpretation of the #
#song. You may only use this file for private study, scholarship, or research. #
#Unless specified otherwise, this is NOT an official tab from the band members.#
#------------------------------------------------------------------------------#

  Visit MetalTabs.com for more metal tablature
  
Band:  Motley Crue
Album: Shout At The Devil
Song:  Knock Em Dead Kid

Copyright (c) Hip-o Records 2003

Transcribed By: toofastforlove70
Email:          fbdude7070@charter.net


.  - palm mute           /  - slide up to
\  - slide down to       ~  - vibrato
h  - hammer on           b  - Bend
p  - pull off            Suffixes for bend
t  - tap                 f  - full bend    h - half bend
ph - pinched harmonic    q  - quarter bend t - tap bend
*  - see comment         ^  - Hold bend    r release bend
x  - Stuccatto           ~  - vibrato bend
,  - slight palm mute    () - ghost note, sustained note
"  - tremolo note        <> - Trill


Intro  all open As are palm-muted
D-----------------------------------
G------------------------------------
C-------2----5-----4-----7-----5/4\5-
F--/17-2----5-----4-----7-----5/4\5-
A--/17--0-0---0-0---0-0---0-0-------
D------------------------------------

Verse  all open As are palm-muted
D------------------------------
G------------------------------
C------------------------------
F-2-----2-----2-----2---------
A-0-0-0-0-0-0-0-0-0-0-3-2h3p2-
D------------------------------

D------------------------------
G------------------------------
C------------------------------
F-2-----2-----2-----2---------
A-0-0-0-0-0-0-0-0-0-0-3-2h3p2-
D------------------------------

D-----------------------------
G------------------------------
C-------------------------------
F-------------------------------
A-5-----5-----5-----5-5-3-2h3p2
D-3-3-3-3-3-3-3-3-3-3-3--------






D------------------------------
G------------------------------
C------------------------------
F-2-----2-----2-----2---------
A-0-0-0-0-0-0-0-0-0-0-3-2h3p2-
D------------------------------

D------------------------------
G------------------------------
C------------------------------
F-2-----2-----2-----2---------
A-0-0-0-0-0-0-0-0-0-0-3-2h3p2-
D------------------------------

D------------------------------
G------------------------------
C------------------------------
F-2-----2-----2-----2---------
A-0-0-0-0-0-0-0-0-0-0-3-2h3p2-
D------------------------------

D-----------------------------
G------------------------------
C-------------------------------
F-------------------------------
A-5-----5-----5-----5-5-3-2h3p2
D-3-3-3-3-3-3-3-3-3-3-3--------

D------------------------------
G------------------------------
C------------------------------
F-2-----2-----2-----2---------
A-0-0-0-0-0-0-0-0-0-0-3-2h3p2-
D------------------------------

Chorus
D-----------------------------------
G------------------------------------
C-------2----5-----4-----7-----5/4\5-
F--/17-2----5-----4-----7-----5/4\5-
A--/17--0-0---0-0---0-0---0-0-------
D------------------------------------

Verse
D------------------------------
G------------------------------
C------------------------------
F-2-----2-----2-----2---------
A-0-0-0-0-0-0-0-0-0-0-3-2h3p2-
D------------------------------

D------------------------------
G------------------------------
C------------------------------
F-2-----2-----2-----2---------
A-0-0-0-0-0-0-0-0-0-0-3-2h3p2-
D------------------------------

D-----------------------------
G------------------------------
C-------------------------------
F-------------------------------
A-5-----5-----5-----5-5-3-2h3p2
D-3-3-3-3-3-3-3-3-3-3-3--------


D------------------------------
G------------------------------
C------------------------------
F-2-----2-----2-----2---------
A-0-0-0-0-0-0-0-0-0-0-3-2h3p2-
D------------------------------

D------------------------------
G------------------------------
C------------------------------
F-2-----2-----2-----2---------
A-0-0-0-0-0-0-0-0-0-0-3-2h3p2-
D------------------------------

D------------------------------
G------------------------------
C------------------------------
F-2-----2-----2-----2---------
A-0-0-0-0-0-0-0-0-0-0-3-2h3p2-
D------------------------------

D-----------------------------
G------------------------------
C-------------------------------
F-------------------------------
A-5-----5-----5-----5-5-3-2h3p2
D-3-3-3-3-3-3-3-3-3-3-3--------

D------------------------------
G------------------------------
C------------------------------
F-2-----2-----2-----2---------
A-0-0-0-0-0-0-0-0-0-0-3-2h3p2-
D------------------------------

Chorus
D-----------------------------------
G------------------------------------
C-------2----5-----4-----7-----5/4\5-
F--/17-2----5-----4-----7-----5/4\5-
A--/17--0-0---0-0---0-0---0-0-------
D------------------------------------

Solo





Chorus
D-----------------------------------
G------------------------------------
C-------2----5-----4-----7-----5/4\5-
F--/17-2----5-----4-----7-----5/4\5-
A--/17--0-0---0-0---0-0---0-0-------
D------------------------------------

Outro
D------------------------------
G------------------------------
C------------------------------
F-2--2--2-5-5--2----------
A-0--0--0-5-3--0----------
D-------------3----------------









How the song is played:

Intro- x10

Verse

Chorus- x8

Verse

Chorus- x8

Solo

Chorus- x8

Outro

  Visit MetalTabs.com for more metal tablature

bottom separator

Contact Us | Privacy Policy | Disclaimer
Copyright © 2001-2014 MetalTabs.com. All Rights Reserved.