top separator

Home

Forum

What's New

Submit a Tab

FAQ

Links

Contact Us

Link to Us

MetalTabs.com logo

Bands

0-9

A

B

C

D

E

F

G

H

I

J

K

L

M

N

O

P

Q

R

S

T

U

V

W

X

Y

Z

Search

What

Where
 

Pestilence - "The Level Of Perception" Guitar Tab

Plain Text Version
More Pestilence Tabs

Hits: 3978
Rated: 4.40 out of 5 (10 votes)
Updated: 2005-03-24 13:22:47

 

By:

Transient

sendpm.gif

email.gif

Important note
This tab is available online because we obtained explicit permission from Pestilence or their label.


#----------------------------------PLEASE NOTE---------------------------------#
#This file is the author's own work and represents their interpretation of the #
#song. You may only use this file for private study, scholarship, or research. #
#Unless specified otherwise, this is NOT an official tab from the band members.#
#------------------------------------------------------------------------------#

  Visit MetalTabs.com for more metal tablature
  
Band:  Pestilence
Album: Spheres
Song:  The Level of Perception

Copyright (c)  (Roadrunner Records) (1993)
Version 1.0 - 3/20/05

Transcribed By: Sam (Transient)
Email:          transientblur@netscape.net

.  - palm mute           /  - slide up to
\  - slide down to       ~  - vibrato
h  - hammer on           b  - Bend
p  - pull off            Suffixes for bend
t  - tap                 f  - full bend    h - half bend
ph - pinched harmonic    q  - quarter bend t - tap bend
*  - see comment         ^  - Hold bend    r release bend
x  - Stuccatto           ~  - vibrato bend
,  - slight palm mute    () - ghost note, sustained note
"  - tremolo note        <> - Trill

Tuning - Standard e a d g b e

Comments:
None, really. This album rules. I'd like to see more
of this album done in the future. I would even do it
myself if I get some positive feedback on this. I skipped
the second solo because it is a bunch of synthesizer noise
and too difficult to recreate.
If there's a problem with this, email me.

I wonder if there was much point to doing this. Nobody even
seems to know about this album...






0:10-0:13,

Riff A
|---------------------------------|
|---------------------------------|
|---------------------------------|
|-3-----1-----4--3-----1-----4----|
|---------------------------------|
|---0-0---0-0------0-0---0-0------|

Riff B
0:13
|--------------------|
|--------------------|
|--------------------|
|--3-----5-----4-----|
|--------------------|
|----0-0---0-0-------|

Riff C 0:18
|--------------------|
|--------------------|
|--------------------|
|-3-----0------5-----|
|--------------------|
|---0-0----0-0-------|

Riff D 0:23
|--------------------------------|
|--------------------------------|
|--------------------------------|
|---2-----3-----2-----3----------|
|-----------------------6-5-6-5--|
|-2---3-2----2----3-2---4-3-4-3--|

Riff E 0:49
|-------------------------|
|-------------------------|
|-------------------------|
|--4-----4-----4----------|
|------------------6-5----|
|----2-1---2-1---2-4-3----|

Riff E2
|------------------------|
|------------------------|
|------------------------|
|--4-----4----4---3------|
|------------------------|
|----2-1---2-1---2---1---|

Riff F 1:39
Guitar 1
|------------------------------------|
|------------------------------------|
|------11-10-------11-10-12-11-------|
|------------------------------------|
|--8-7--------9-8--------------9-8---|
|------------------------------------|

Guitar 2
|-------------------------------|
|-------------------------------|
|-------------------------------|
|-------6-5------6-5-7-6--------|
|-------------------------------|
|--3-2------4-3----------4-3----|

Bass Line (why not)
|--------------|
|--------------|
|--------------|
|--------------|
|--------------|
|--3-4~--5-6---|

Riff G under solo 1:59 (Very hard to hear)

|----------------|
|----------------|
|----------------|
|-----2----3-----|
|----------------|
|-0-1---1-----2--|

|-------------|
|-------------|
|-------------|
|-----4---5---|
|-------------|
|-1-2---2---3-|


Solo
|----------------------------------------|
|----------------------------------10h12-|
|----6---5----/8----7-9-7-9-/11-12-------|
|--6---6---5------6----------------------|
|----------------------------------------|
|----------------------------------------|

|-----------------/18----15---------------|
|-9-9-6-7-----------------------------/20-|
|---------8/9-4--------------15-15--------|
|-----------------------------------------|
|-----------------------------------------|
|-----------------------------------------|

|----------------------------------------|
|----------------------------------------|
|-17-17~--h20-20p18-18-16----------------|
|--------------------------17-16-14-12---|
|----------------------------------------|
|----------------------------------------|

|-------------------------------------------|
|----------------------------15h17/19-------|
|-13-13-14-13-11-9h11--14h16-----------17-19|
|-------------------------------------------|
|-------------------------------------------|
|-------------------------------------------|

|-----------------/20-18\17-----|
|-------------------------------|
|-16-19-------------------------|
|-------17-19-17----------------|
|-------------------------------|
|-------------------------------|

|--15-17------------------------|
|---------13-15-13----12--------|
|------------------12----13-----|
|-------------------------------|
|-------------------------------|
|-------------------------------|

Riff H  3:27
Guitar one
|----------------------------|
|----------------------------|
|----------------------------|
|-6-5-7-6-5-6-5-8-9-10-7-10--|
|-4-3-5-4--------------------|
|----------------------------|

Guitar two
|----------------------------|
|----------------------------|
|----------------------------|
|-6-5-7-6-8-11-13-8-10-8-9---|
|-4-3-5-4--------------------|
|----------------------------|


Song order
Riff A = 2x -|\
Riff B = 1x -| \
Riff A = 2x -|  \ "Intro Sequence"
Riff B = 1x -|  /
Riff C = 1x -| /
Riff A = 1x -|/

Riff D = 9x

Riff E=  1x -|\
Riff E2= 1x -| \
Riff E=  2x -|  - "Chorus"
Riff E2= 1x -| /
Riff E=  1x -|/

Riff D=  3x
Chorus = 1x
Intro Sequence - 1x
Riff G and Solo
Riff D = 8x
Chorus = 1x
Riff G moved up one fret under second solo
Intro Sequence
Riff H 1x

  Visit MetalTabs.com for more metal tablature

bottom separator

Contact Us | Privacy Policy | Disclaimer | Legal Notice
Copyright © 2001-2014 MetalTabs.com. All Rights Reserved.