top separator

Home

Forum

What's New

Submit a Tab

FAQ

Links

Contact Us

Link to Us

MuSpy.com

MetalTabs.com logo

Bands

0-9

A

B

C

D

E

F

G

H

I

J

K

L

M

N

O

P

Q

R

S

T

U

V

W

X

Y

Z

Search

What

Where
 

Atrophy (US) - "Beer Bong" Guitar Tab

Plain Text Version
More Atrophy (US) Tabs

Hits: 6610
Rated: 4.78 out of 5 (9 votes)
Updated: 2005-03-24 13:19:17

 

By:

MetalThrashingMad

sendpm.gif

email.gif

Important note
We did our best to reach Atrophy (US) and ask for their permission to publish this tab. Unfortunately they did not respond to our requests or we could not find a way to contact them. This tab is available online until Atrophy (US) tells us to take it down.


#----------------------------------PLEASE NOTE---------------------------------#
#This file is the author's own work and represents their interpretation of the #
#song. You may only use this file for private study, scholarship, or research. #
#Unless specified otherwise, this is NOT an official tab from the band members.#
#------------------------------------------------------------------------------#

  Visit MetalTabs.com for more metal tablature
  
Band: Atrophy
Album: Socialized Hate
Song: Beer Bong
Copyright (c) 1988 Roadrunner
Version 1.0 - 3-20-2005
Transcribed By: Steve - MetalThrashingMad
Email: Thrasher502@hotmail.com

. - palm mute                    /
s - slide                       /
~ - vibrato                    /   - bend  up as indicated
h - hammer on
p - pull off                   \
t - right hand tapping          \
( ) - sustained note             \ - bend down as indicated
[] - side note
% - end riff
nh - natural harmonic            |
ph - pinched harmonic            |
tr - trill                       | - pre-bend as indicated, also used to
# - percussive note                   link multiple guitar parts
.+ - continue to next staff
Suffixes for bends:              - - - - - hold note as indicated
5 - half step
1 - whole step
1.5 - step and a half
2 - two steps
2.5 - two and a half steps
[w/bar] - use tremolo bar

Tuning E A D G B E



================================================================================

riff 1
|----------------------------------------------------------------------------|
|----------------------------------------------------------------------------|
|----------------------------------------------------------------------------|
|-9-9--8-9---12-11-11--9-9-8-9----------9-9--8-9---12-11-11--9-9-8-9---------|
|-7-7--6-7---10-9--9---7-7-6-7----------7-7--6-7---10-9--9---7-7-6-7---------|
|------------------------------0-0-0-0-------------------------------0-0-0-0-|
                               * * * *                               * * * *

|----------------------------------------------------------------------------|
|----------------------------------------------------------------------------|
|----------------------------------------------------------------------------|
|-9-9--8-9---12-11-11--9-9-8-9----------9-9--8-9---12-11-11--9-9-8-9---------|
|-7-7--6-7---10-9--9---7-7-6-7----------7-7--6-7---10-9--9---7-7-6-7---------|
|------------------------------0-0-0-0---------------------------------------|
                               * * * *




riff 2 [play 4 times]
|--------------------------------------------------------------------------|
|--------------------------------------------------------------------------|
|--------------------------------------------------------------------------|
|-9-------------------9-------------------9--------------------------------|
|-7---------9---------7---------9---------7---------9---------8-8-8--8-8-8-|
|---0-0-0-0-7-0-0-0-0---0-0-0-0-7-0-0-0-0---0-0-0-0-7-0-0-0-0-6-6-6--6-6-6-|
    * * * *   * * * *   * * * *   * * * *   * * * *   * * * *




riff 3 [play 2 times]
|--------------------------------------------------------|
|--------------------------------------------------------|
|--------------------------------------------------------|
|-9-9----------9--------------9-9---------7--------------|
|-7-7-10-9-10--7--------------7-7-10-9-10-5--------------|
|-----8--7-8-----0-000-000-00-----8--7-8----0-000-000-00-|
                 * *** *** **               * *** *** **


[play riff 2 4 times]
[play riff 3 2 times]
[play riff 2 4 times]
[play riff 3]


|--------------------------------------------------------|
|--------------------------------------------------------|
|--------------------------------------------------------|
|-9-9----------9--------------9-9---------7--------------|
|-7-7-10-9-10--7--------------7-7-10-9-10-5--------------|
|-----8--7-8-----0-000-000-00-----8--7-8-----------------|
                 * *** *** **


[play riff 2]


|-------------------------------------------------------------|
|-------------------------------------------------------------|
|-------------------------------------------------------------|
|-9-------------------9-------------------9-------------------|
|-7---------9---------7---------9---------7---------9---------|
|---0-0-0-0-7-0-0-0-0---0-0-0-0-7-0-0-0-0---0-0-0-0-7-0-0-0-0-|
    * * * *   * * * *   * * * *   * * * *   * * * *   * * * *

END

  Visit MetalTabs.com for more metal tablature

bottom separator

Contact Us | Privacy Policy | Disclaimer | Legal Notice
Copyright © 2001-2014 MetalTabs.com. All Rights Reserved.