#----------------------------------PLEASE NOTE---------------------------------#
#This file is the author's own work and represents their interpretation of the #
#song. You may only use this file for private study, scholarship, or research. #
#Unless specified otherwise, this is NOT an official tab from the band members.#
#------------------------------------------------------------------------------#

  Visit MetalTabs.com for more metal tablature
  
Band: Nargaroth
Album: Black Metal Ist Krieg
Song: Possessed By Black Fucking Metal

Copyright (c)  No Colours Records 2001
Version 1.0 - 3.20.2005

Transcribed By: Lord Ncaroh

.  - palm mute           /  - slide up to
\  - slide down to       ~  - vibrato
h  - hammer on           b  - Bend
p  - pull off            Suffixes for bend
t  - tap                 f  - full bend    h - half bend
ph - pinched harmonic    q  - quarter bend t - tap bend
*  - see comment         ^  - Hold bend    r release bend
x  - Stuccatto           ~  - vibrato bend
,  - slight palm mute    () - ghost note, sustained note
"  - tremolo note        <> - Trill

Tuning E A D G B E

Riff 1a

E|-----------------------------------------------------------------------|
B|-----------------------------------------------------------------------|
G|-----------------------------------------------------------------------|
D|-----------------------------------------------------------------------|
A|-----------2--2-2-2-2-2-2--2-2-2---------------------------------------|
E|--8-7-3-2--0--0-0-0-0-0-0--0-0-0---------------------------------------|

Riff 1b

E|-----------------------------------------------------------------------|
B|-----------------------------------------------------------------------|
G|-----------------------------------------------------------------------|
D|-----------------------------------------------------------------------|
A|-----------2--2-2-2-2-2-2--2-2-2---------------------------------------|
E|--8-7-7----0--0-0-0-0-0-0--0-0-0---------------------------------------|

Riff 1c

E|-----------------------------------------------------------------------|
B|-----------------------------------------------------------------------|
G|-----------------------------------------------------------------------|
D|-----------------------------------------------------------------------|
A|-----------2--2-2-2-2-2-2--5--5-5--5--5--2--2-2-2-2-2-2--2-2-2--------|
E|--8-7-3-2--0--0-0-0-0-0-0--3-3-3--3--3--0--0-0-0-0-0-0--0-0-0--------|

Riff 1d

E|------------------------------------------------------------------------|
B|------------------------------------------------------------------------|
G|------------------------------------------------------------------------|
D|------------------------------------------------------------------------|
A|-----------4--4-4-4-4-4-4--4-4-4-----------0--0-0-0-0-0--5--5-5--5--5--|
E|--8-7-3-2--2--2-2-2-2-2-2--2-2-2--8-7-3-2--2--2-2-2-2-2--3--3--3--3--3--|


Riff 2

E|------------------------------------------------------------|
B|------------------------------------------------------------|
G|------------------------------------------------------------|
D|------------------------------------------------------------|
A|--77777779999998888887777777999999888888--------------------|
E|--00000007777776666660000000777777666666--------------------|

Riff 3

E|-----------------------------------------------------------------------|
B|-----------------------------------------------------------------------|
G|-----------------------------------------------------------------------|
D|-----------------------------------------------------------------------|
A|--7777777777-10101010-11-10--7777777777-10101010-11-10-9-10------------|
E|--5555555555-8-8-8-8--9--8---5555555555-8-8-8-8--9--8--7-8-------------|


Riff 4

E|----------------------------------------|---------------------------------|
B|----------------------------------------|---------------------------------|
G|----------------------------------------|---------------------------------|
D|---9-9-9--------------------------9-9-9-|-------------9-9-9---------------|
A|---7-7-7---2--2-2-2-2-2-2--2-2-2--7-7-7-|-4--4--4--4--7-7-7---------------|
E|-----------0--0-0-0-0-0-0--0-0-0--------|-2--2--2--2----------------------|

  Visit MetalTabs.com for more metal tablature