top separator

Home

Forum

What's New

Submit a Tab

FAQ

Links

Contact Us

Link to Us

MuSpy.com

MetalTabs.com logo

Bands

0-9

A

B

C

D

E

F

G

H

I

J

K

L

M

N

O

P

Q

R

S

T

U

V

W

X

Y

Z

Search

What

Where
 

Suffocation - "Devoid Of Truth" Guitar Tab

Plain Text Version
More Suffocation Tabs

Hits: 2847
Rated: 2.14 out of 5 (14 votes)
Updated: 2005-03-24 12:59:27

 

By:

Transient

sendpm.gif

email.gif

Important note
This tab is available online because we obtained explicit permission from Suffocation or their label.


#----------------------------------PLEASE NOTE---------------------------------#
#This file is the author's own work and represents their interpretation of the #
#song. You may only use this file for private study, scholarship, or research. #
#Unless specified otherwise, this is NOT an official tab from the band members.#
#------------------------------------------------------------------------------#

  Visit MetalTabs.com for more metal tablature
  
Band: Suffocation
Album: Despise the Sun
Song: Devoid of Truth
Copyright (c) 1998 Vulture
Version 1.0
Transcribed By: Sam (Transient)
Email: transientblur@netscape.net



.  - palm mute           /  - slide up to
\  - slide down to       ~  - vibrato
h  - hammer on           b  - Bend
p  - pull off            Suffixes for bend
t  - tap                 f  - full bend    h - half bend
ph - pinched harmonic    q  - quarter bend t - tap bend
*  - see comment         ^  - Hold bend    r release bend
x  - Stuccatto           ~  - vibrato bend
,  - slight palm mute    () - ghost note, sustained note
"  - tremolo note        <> - Trill


Tuning:
Guitar 1 - C# [left channel]

Notes: This was hard to tab, but this was my best effort. This is actually
my first complete tab. I didn't put all the palm muting in, because almost
the entire song is palm muted. There's been some discussion about what tuning
this albums in, I've heard C, C#, combinations, and so on. To my ears,
it sounds like it is INBETWEEN C# and C. Thats why the opening chords
dont sound quite right, but they do if you bend them a little. I'm sorry that
some of this is probably wrong. If you can find any errors and fix them,
let me know.

This tab is dedicated to Cloaca and Stachio. You guys rule, and I'm
sure you two could have tabbed this thing out in 30 minutes.
Anyways, We and everyone else appreciate
your tabs!


0:00
|-----------------------------|
|-----------------------------|
|-----------------------------|
|-----3---3-----3---3-----4---|
|-3-3-3-3-3-3-3-3-3-3-3-3-4---|
|-1-1---1---1-1---1---1-1-----|

|-----------------------------|
|-----------------------------|
|-----------------------------|
|-----3---3-----3---3-----2---|
|-3-3-3-3-3-3-3-3-3-3-3-3-2---|
|-1-1---1---1-1---1---1-1-----|


|----------------------------------|
|----------------------------------|
|----------------------5-4-3-------|
|-----3---3------5-4-3-5-4-3-4-3---|
|-3-3-3-3-3-3-3--5-4-3-3-2-1-4-3---|
|-1-1---1---1-1--3-2-1-------2-1---|


0:21
|------------------|
|------------------|
|------------------|
|--5-4-3-5-4-3-4-3-|
|--5-4-3-3-2-1-4-3-|
|--3-2-1-------2-1-|

0:21-0:40
|-----------------------------------------------|
|-----------------------------------------------|
|-----------------------------------------------|
|-----------------------------------------------|
|----------3333333----3333333----3333----44444--|
|-11111111---------11---------111-----11--------|

|-----------------------------------------------|
|-----------------------------------------------|
|-----------------------------------------------|
|-----------------------------------------------|
|----------3333333----3333333----3333----22222--|
|-11111111---------11---------111-----11--------|

|----------------------------------------------------|
|----------------------------------------------------|
|----------------------------------------------------|
|----------------------------------------------------|
|----------3333333----3333333----3333----------------|
|-11111111---------11---------111-----000-00-000-00--|


Guitar 1 0:41
|---------------|
|---------------|
|---------------|
|--3---5---7--8-|
|--3---5---7--8-|
|--1---3---5--6-|

Guitar 2
|-------------------|
|-------------------|
|-------------------|
|--5-4-5-4-5-4-5-4--|
|--5-4-5-4-5-4-5-4--|
|--3-2-3-2-3-2-3-2--|

0:42-0:54

|---------------------|
|---------------------|
|---------------------|
|-2-3--4-3-4-3--6-7---|
|-2-3--4-3-4-3--6-7---|
|-0-1--2-1-2-1--4-5---|

0:54
|-----------------------|
|-----------------------|
|---------5-------5-6---|
|-3-4-3-4-5-4-3-2-5-6---|
|-3-4-3-4-3-4-3-2-3-4---|
|-1-2-1-2---2-1-0-------|

1:01
|-----------------------|
|-----------------------|
|----------8-------8-9--|
|--6-7-6-7-8-7-6-5-8-9--|
|--6-7-6-7-6-7-6-5-6-7--|
|--4-5-4-5---5-4-3------|

|-----------------------|
|-----------------------|
|----------6-------6-7--|
|--5-6-5-6-6-6-5-4-6-7--|
|--5-6-5-6-4-6-5-4-4-5--|
|--3-4-3-4---4-3-2------|

1:06
|------------------------|
|------------------------|
|------------------------|
|--2-3-2-3-6-5------7-8--|
|--2-3-2-3-6-5------7-8--|
|--0-1-0-1-4-3-0-0--5-6--|


Guitar 1 1:32
|-------------|-----------|
|-------------|-----------|
|-------------|-----------|
|----2h4-3h5--|-4--2-3-4--|
|--4-2h4-3h5--|-4--2-3-4--|
|--2----------|-2--0-1-2--|

Guitar 2


|------------------------|
|------------------------|
|-----------6-7-9--6-7-8-|
|--4--4--4--6-7-9--6-7-8-|
|--4--4--4--4-5-7--4-5-6-|
|--2--2--2---------------|

1:58

|------------------------|
|------------------------|
|------------------------|
|------------------------|
|--4-5-6-5-6-5-2-3-4-5-6-|
|--2-3-4-3-4-3-0-1-2-3-4-|

|------------------------|
|------------------------|
|------------------------|
|-----------------9-8-6--|
|--4-5-6-5-6-5-4--7-6-4--|
|--2-3-4-3-4-3-2---------|

2:07
|------------|
|------------|
|---5/6\5-3--|
|-3-5/6\5-3--|
|-3-3/4\3-1--|
|-1----------|

|------------|
|------------|
|----9-8-5---|
|-4--9-8-5---|
|-4--7-6-3---|
|-2----------|

Variations on that untill the end of the song. For instance, instead
of playing the chord versions they do only root notes. Sorry, but this part
is almost impossible to hear.

  Visit MetalTabs.com for more metal tablature

bottom separator

Contact Us | Privacy Policy | Disclaimer | Legal Notice
Copyright © 2001-2014 MetalTabs.com. All Rights Reserved.