top separator

Home

Forum

What's New

Submit a Tab

FAQ

Links

Contact Us

Link to Us

MuSpy.com

MetalTabs.com logo

Bands

0-9

A

B

C

D

E

F

G

H

I

J

K

L

M

N

O

P

Q

R

S

T

U

V

W

X

Y

Z

Search

What

Where
 

Darkthrone - "Paragon Belial" Guitar Tab

Plain Text Version
More Darkthrone Tabs

Hits: 6093
Rated: 4.40 out of 5 (5 votes)
Updated: 2005-03-24 12:56:55

 

By:

sendpm.gif

email.gif

Important note
This tab is available online because we obtained explicit permission from Darkthrone or their label.


#----------------------------------PLEASE NOTE---------------------------------#
#This file is the author's own work and represents their interpretation of the #
#song. You may only use this file for private study, scholarship, or research. #
#Unless specified otherwise, this is NOT an official tab from the band members.#
#------------------------------------------------------------------------------#

  Visit MetalTabs.com for more metal tablature
  
Band:  Darkthrone
Album: A Blace in the Northern Sky
Song:  Paragon Belial

Copyright (c)  Peaceville Records 1991
Version 1.0 - 25.feb 2005

Transcribed By: Eivind Sele
Email:          eivindsele@hotmail.com


.  - palm mute           /  - slide up to
\  - slide down to       ~  - vibrato
h  - hammer on           b  - Bend
p  - pull off            Suffixes for bend
t  - tap                 f  - full bend    h - half bend
ph - pinched harmonic    q  - quarter bend t - tap bend
*  - see comment         ^  - Hold bend    r release bend
x  - Stuccatto           ~  - vibrato bend
,  - slight palm mute    () - ghost note, sustained note
"  - tremolo note        <> - Trill

Tunning E A D G B E

Riff 1 (3/4)
||---------|---------||
||---------|---------||
||---------|---------||
||-3-------|-4-------||
||-3-------|-4-------||
||-1-------|-2-------||

Riff 2 (4/4)
||------------|------------|------------|------------|
||------------|------------|------------|------------|
||------------|-5----------|------------|------------|
||-2----------|-5----------|-6----------|(6)---------|
||-2----------|-3----------|-6----------|(6)---------|
||-0----------|------------|-4----------|(4)---------|

                                                       last time
 |------------|------------|------------|------------||------------||
 |------------|------------|------------|------------||------------||
 |------------|-------8--7-|-4----------|(4)---------||(4)----8--7-||
 |-4----------|(4)----8--7-|-4----------|(4)---------||(4)----8--7-||
 |-4----------|(4)----6--5-|-2----------|(2)---------||(2)----6--5-||
 |-2----------|(2)---------|------------|------------||------------||

Riff 3 (4/4)
||----3-------|------------|----1-------|------------||
||-------2----|------------|------------|----2--3----||
||----------0-|----1~~~----|-------4--0-|------------||
||------------|-2----------|------------|-2----------||
||------------|------------|------------|------------||
||-0----------|------------|-0----------|------------||

Riff 4 (4/4)
||--------------|-----------------||
||--------------|---------6-------||
||--------------|---4-3-0---4-0---||
||----0h1-1----1|-2---------------||
||-2------------|-----------------||
||-0---------0--|-----------------||

Riff 5a (3/4)
||------------|------------||
||------------|------------||
||-1-4-4-1-3--|-1-4-4-1-2--||
||------------|------------||
||------------|------------||
||------------|------------||

Riff 5b (3/4)
||------------|------------|------------|------------||
||-4----------|-0----------|-3----------|------------||
||------------|------------|------------|------------||
||------------|------------|------------|------------||
||------------|------------|------------|------------||
||------------|------------|------------|------------||

Riff 6 (4/4)
||------------|------------|------------|------------||
||----3--2--1-|------------|----3--5--2-|----2--3----||
||------------|----1~~~----|------------|------------||
||------------|-2----------|------------|-2----------||
||------------|------------|------------|------------||
||-0----------|------------|-0----------|------------||

Riff 7a (4/4)
||--------------|-----------------||
||--------------|-----------------||
||-4--4-3--/4--4|-0--0--3~~~------||
||-2--2---------|-----------------||
||--------------|-----------------||
||--------------|-----------------||

Riff 7b (4/4)
||-6^7~~~-------|-6h7p6h7p6h7p6---|-6^7------\---|-----------------||
||--------------|-----------------|--------------|-----------------||
||--------------|-----------------|--------------|-/6--------------||
||--------------|-----------------|--------------|-----------------||
||--------------|-----------------|--------------|-----------------||
||--------------|-----------------|--------------|-----------------||

Riff 8a (4/4)
||------------|------------|------------|------------|
||------------|------------|------------|------------|
||------------|------------|------------|------------|
||-7-7--------|-7-7--------|-5-5--------|-2-2--------|
||-7-7--------|-7-7--------|-5-5--------|-2-2--------|
||-5-5--------|-5-5--------|-3-3--------|-0-0--------|

                                                       w/guitar 2 last time
 |------------|------------|------------|------------||------------||
 |------------|------------|------------|------------||------------||
 |------------|------------|------------|------------||------------||
 |-7-7--------|-7-7--------|-5-5--------|\2----------||-2232h32----||
 |-7-7--------|-7-7--------|-5-5--------|\2----------||------------||
 |-5-5--------|-5-5--------|-3-3--------|\0----------||------------||
     .            .

Riff 8b (4/4)
||------------|------------|------------|------------|
||------------|------------|------------|------------|
||-22322------|-22322------|------------|------------|
||------------|------------|-55655------|-22322------|
||------------|------------|------------|------------|
||------------|------------|------------|------------|


 |------------|------------|------------|------------|
 |------------|------------|------------|------------|
 |-22h3p2h3p2-|-22h3p2h3p2-|------------|------------|
 |------------|------------|-55655------|-2232h32----|
 |------------|------------|------------|------------|
 |------------|------------|------------|------------|

 |------------|------------|------------|------------|
 |-55655------|-55655------|------------|------------|
 |------------|------------|-77877------|-44544------|
 |------------|------------|------------|------------|
 |------------|------------|------------|------------|
 |------------|------------|------------|------------|

 |---6p5h6p5--|---6p5h6p5--|------------|------------||
 |-55---------|-55---------|------------|------------||
 |------------|------------|-77877------|-4454h54----||
 |------------|------------|------------|------------||
 |------------|------------|------------|------------||
 |------------|------------|------------|------------||

Riff 9 (4/4)
||------------||
||------------||
||------------||
||-7----------||
||-7----------||
||-5----------||

Song structure:

Riff 1 x8
Riff 2 x3
Riff 3 x6
Riff 4 x8
Riff 5a x8  (3rd time: +Riff 5b x2)
Riff 3 x2
Riff 3+6 x2
Riff 3 x2
Riff 4 x8
Riff 7a x4  (1st time: +Riff 7b x1)
Riff 8a x3  (1st time: +Riff 8b x1)
Riff9 x1


END

  Visit MetalTabs.com for more metal tablature

bottom separator

Contact Us | Privacy Policy | Disclaimer | Legal Notice
Copyright © 2001-2014 MetalTabs.com. All Rights Reserved.