top separator

Home

Forum

What's New

Submit a Tab

FAQ

Links

Contact Us

Link to Us

MuSpy.com

MetalTabs.com logo

Bands

0-9

A

B

C

D

E

F

G

H

I

J

K

L

M

N

O

P

Q

R

S

T

U

V

W

X

Y

Z

Search

What

Where
 

Darkthrone - "Under A Funeral Moon" Bass Tab

Plain Text Version
More Darkthrone Tabs

Hits: 6062
Rated: 3.67 out of 5 (3 votes)
Updated: 2005-03-24 12:45:01

 

By:

sendpm.gif

email.gif

Important note
This tab is available online because we obtained explicit permission from Darkthrone or their label.


#----------------------------------PLEASE NOTE---------------------------------#
#This file is the author's own work and represents their interpretation of the #
#song. You may only use this file for private study, scholarship, or research. #
#Unless specified otherwise, this is NOT an official tab from the band members.#
#------------------------------------------------------------------------------#

  Visit MetalTabs.com for more metal tablature
  
Band:  DARKTHRONE
Album: UNDER A FUNERAL MOON
Song:  Under A Funeral Moon

Copyright (c)  Peaceville 1993
Version 1.0  18-03-2005

Transcribed By: Evil Barba
Email:          Judasbear@hotmail.com


.  - palm mute           /  - slide up to
\  - slide down to       ~  - vibrato
h  - hammer on           b  - Bend
p  - pull off            Suffixes for bend
t  - tap                 f  - full bend    h - half bend
ph - pinched harmonic    q  - quarter bend t - tap bend
*  - see comment         ^  - Hold bend    r release bend
x  - Stuccatto           ~  - vibrato bend
,  - slight palm mute    () - ghost note, sustained note
"  - tremolo note        <> - Trill

Tuning E A D G

                       PART 1

Riff 1
|------------------|
|------------------|
|-7777777766666666-|
|------------------|

Riff 2
|------------------|
|------------------|
|-2222222222221111-|
|------------------|

Riff 3  4x
|-------------------|
|-------------------|
|-------------------|
|-33333333333332222-|


Riff 4  4x
|------------------------------------------------------------------------------|
|7h8p7--------------7h8p7-------6h7p6-------7h8p7--------------7h8p7------5-9-8|
|------0000000000000------000000------000000------0000000000000------00000-----|
|------------------------------------------------------------------------------|

Repeat PART 1

                       PART 2

Riff 5
3/4
|------------------------------------------|
|------------------------------------------|
|------------------------------------------|
|-0----0----4----4----4--3-3----3--1-1---|

Riff 6 (Guitar solo) 4x
|------------------------------------------|
|------------------------------------------|
|-----------4----4----4--3-3----3--1-1---|
|-0----0-----------------------------------|

Riff 7  4x
|---------------------------------|--------------------------------|
|---------------------------------|--------------------------------|
|---------------------------------|--------------------------------|
|-0---0---1---1---0---0---1-0--3--|-0---0---1---1---0---0---0---1--|

Repeat PART 1

                       PART 3

4/4
|------------------------------------------------------------------------------|
|------------------------------------------------------------------------------|
|-------------------------------1111111111111112222222222222222222222222222222-|
|-333333333333333222222222222222-----------------------------------------------|

|--------------------------------------------------|
|--------------------------------------------------|
|-111111111111111122222222222222222222222222222222-|
|--------------------------------------------------|

|------------------------------------------------------------------|
|------------------------------------------------------------------|
|-----------------111111111111111122222222222222222222222222222222-|
|-3333333333333333-------------------------------------------------|

|------------------------------------------------------------------|
|------------------------------------------------------------------|
|-----------------111111111111111122222222222222222222222222222222-|
|-3333333333333333-------------------------------------------------|

|------------------------------------------------------------------|
|------------------------------------------------------------------|
|-----------------2----2h32h32h3---------------------------------|
|-3333333333333333-------------------------------------------------|


            TRUE EVIL BLACK METAL DEVASTATION

  Visit MetalTabs.com for more metal tablature

bottom separator

Contact Us | Privacy Policy | Disclaimer | Legal Notice
Copyright © 2001-2014 MetalTabs.com. All Rights Reserved.