top separator

Home

Forum

FAQ

Contact Us

Link to Us

MetalTabs.com logo

Bands

0-9

A

B

C

D

E

F

G

H

I

J

K

L

M

N

O

P

Q

R

S

T

U

V

W

X

Y

Z

Satyricon - "Part IV Du som Hater Gud" Bass Tab

Plain Text Version
More Satyricon Tabs

Hits: 2553
Rated: 5.00 out of 5 (1 vote)
Updated: 2005-03-24 12:44:07

By:


#----------------------------------PLEASE NOTE---------------------------------#
#This file is the author's own work and represents their interpretation of the #
#song. You may only use this file for private study, scholarship, or research. #
#Unless specified otherwise, this is NOT an official tab from the band members.#
#------------------------------------------------------------------------------#

  Visit MetalTabs.com for more metal tablature
  
Band:  Satyricon
Album: Nemesis Divina
Song:  Du Som Hater Gud

Copyright (c)  Moonfog/Century Media USA  1996
Version 1.0     17-03-2005

Transcribed By: Evil Barba
Email:          Judasbear@hotmail.com


.  - palm mute           /  - slide up to
\  - slide down to       ~  - vibrato
h  - hammer on           b  - Bend
p  - pull off            Suffixes for bend
t  - tap                 f  - full bend    h - half bend
ph - pinched harmonic    q  - quarter bend t - tap bend
*  - see comment         ^  - Hold bend    r release bend
x  - Stuccatto           ~  - vibrato bend
,  - slight palm mute    () - ghost note, sustained note
"  - tremolo note        <> - Trill

Tuning E A D G

Riff 1   1x without drums, 4x with drums
|-------------------------------------------------------------------|
|-------------------------------------------------------------------|
|00000000000000000000000000000000000000008888888888888888-----------|
|-------------------------------------------------------------------|

Riff 2   8x
|-------------------------------------------------------------------|
|-------------------------------------------------------------------|
|777777888888777777555555777777887755333333222222332233-------------|
|-------------------------------------------------------------------|

Riff 1   4x

Riff 3   8x
|-------------------------------------------------------------------
|-------------------------------------------------------------------
|----------------------------------------------------222222333333---
|5555555555555555111111111111111111113333333333333333---------------


---------------------------------|
---------------------------------|
-2222----------------------------|
-----1111110000004444------------|

Riff 4   4x
|-------------------|
|-------------------|
|-0000000055665555--|
|-------------------|

Riff 1    4x

Riff 4    8x

Riff 2    2x

Riff 5    4x
|---------------------------------------|
|---------------------------------------|
|-----5---------------------------------|
|5---------5----4----5----0----5----0---|

Riff 6    4x
|---------------------------------------|
|---------------------------------------|
|---------------5-----------------------|
|5----4----5---------5----4----5----0---|

Riff 5   2x

Riff 6   2x

END

  Visit MetalTabs.com for more metal tablature

bottom separator

Contact Us | Privacy Policy | Disclaimer
Copyright © 2001-2014 MetalTabs.com. All Rights Reserved.