top separator

Home

Forum

What's New

Submit a Tab

FAQ

Links

Contact Us

Link to Us

MuSpy.com

MetalTabs.com logo

Bands

0-9

A

B

C

D

E

F

G

H

I

J

K

L

M

N

O

P

Q

R

S

T

U

V

W

X

Y

Z

Search

What

Where
 

Suffocation - "Bloodchurn" Guitar Tab

Plain Text Version
More Suffocation Tabs

Hits: 5240
Rated: 4.00 out of 5 (3 votes)
Updated: 2005-08-17 15:42:44

 

By:

MetalThrashingMad

sendpm.gif

email.gif

Important note
This tab is available online because we obtained explicit permission from Suffocation or their label.


#----------------------------------PLEASE NOTE---------------------------------#
#This file is the author's own work and represents their interpretation of the #
#song. You may only use this file for private study, scholarship, or research. #
#Unless specified otherwise, this is NOT an official tab from the band members.#
#------------------------------------------------------------------------------#

  Visit MetalTabs.com for more metal tablature
  
BLOODCHURN
                           As recorded by Suffocation
                      (From the 1998 Album DESPISE THE SUN)
                           Copyright (c) Vulture 1998

Arranged by Suffocation
Transcribed by Steve Rubaszek
Version: Final, July 20, 2005

Gtr I (C# F# B E G# C#) - 'Terrence Hobbs'
Gtr II (C# F# B E G# C#) - 'Doug Cerrito'


 0:00
  Q=215
 2/4       4/4
  Gtr I
  E E E E   W                                 H               E E E E
|---------|---------------------------------|--------------------------|
|---------|---------------------------------|--------------------------|
|---------|---------------------------------|--------------------------|
|-3-4-----|---------------------------------|-----------------3-4------|
|-1-2-5-4-|---------------------------------|-----------------1-2-5-4--|
|-----3-2-|---------------------------------|---------------------3-2--|
|
| Gtr II
|           PM----------------------------------------------|
| E E E E   S S S S S S S S S S S S S S S S   S S S S S S S S E E E E
|---------|---------------------------------|--------------------------|
|---------|---------------------------------|--------------------------|
|---------|---------------------------------|--------------------------|
|-3-4-----|---------------------------------|-----------------3-4------|
|-1-2-5-4-|---------------------------------|-----------------1-2-5-4--|
|-----3-2-|-2-2-2-2-2-2-1-1-2-2-2-2-2-2-1-1-|-2-2-2-2-2-2-1-1-----3-2--|


  W                                 W
|---------------------------------|-----------------|
|---------------------------------|-----------------|
|---------------------------------|-----------------|
|---------------------------------|-----------------|
|---------------------------------|-----------------|
|---------------------------------|-----------------|
|
| PM----------------------------|
| S S S S S S S S S S S S S S S S   E E E E E E E E
|---------------------------------|-----------------|
|---------------------------------|-----------------|
|---------------------------------|-----------------|
|---------------------------------|-----------------|
|---------------------------------|---5-4-----6-5---|
|-2-2-2-2-2-2-1-1-2-2-2-2-2-2-1-1-|-5-----5-5-----5-|


  PM--------------------------------|
  W                                 W
|---------------------------------|-------------------------|
|---------------------------------|-------------------------|
|---------------------------------|-------------------------|
|---------------------------------|-------------------------|
|-4-------------------------------|-4-----------------------|
|-2-------------------------------|-2-----------------------|
|
| PM----------------------------------------------|
| S S S S S S S S S S S S S S S S   S S S S S S S S E E E E
|---------------------------------|-------------------------|
|---------------------------------|-------------------------|
|---------------------------------|-------------------------|
|---------------------------------|-----------------3-4-----|
|---------------------------------|-----------------1-2-5-4-|
|-2-2-2-2-2-2-1-1-2-2-2-2-2-2-1-1-|-2-2-2-2-2-2-1-1-----3-2-|


  Gtrs I, II
  PM----------------------------|
  S S S S S S S S S S S S S S S S   E E E E E E E E
|---------------------------------|-----------------|
|---------------------------------|-----------------|
|---------------------------------|-----------------|
|---------------------------------|-----------------|
|---------------------------------|---5-4---7-5-4-5-|
|-2-2-2-2-2-2-1-1-2-2-2-2-2-2-1-1-|-5-----5---------|


    PM----------------------------------------------|
    S S S S S S S S S S S S S S S S   S S S S S S S S E E E E
||----------------------------------|-------------------------|
||o---------------------------------|-------------------------|
||----------------------------------|-------------------------|
||----------------------------------|-----------------3-4-----|
||o---------------------------------|-----------------1-2-5-4-|
||--2-2-2-2-2-2-1-1-2-2-2-2-2-2-1-1-|-2-2-2-2-2-2-1-1-----3-2-|


  PM----------------------------|
  S S S S S S S S S S S S S S S S   E E E E E E E E
|---------------------------------|-----------------|
|---------------------------------|-----------------|
|---------------------------------|-----------------|
|---------------------------------|-----------------|
|---------------------------------|---5-4-----6-5---|
|-2-2-2-2-2-2-1-1-2-2-2-2-2-2-1-1-|-5-----5-5-----5-|


  PM----------------------------------------------|
  S S S S S S S S S S S S S S S S   S S S S S S S S E E E E
|---------------------------------|-------------------------|
|---------------------------------|-------------------------|
|---------------------------------|-------------------------|
|---------------------------------|-----------------3-4-----|
|---------------------------------|-----------------1-2-5-4-|
|-2-2-2-2-2-2-1-1-2-2-2-2-2-2-1-1-|-2-2-2-2-2-2-1-1-----3-2-|


  PM----------------------------|
  S S S S S S S S S S S S S S S S   E E E E E E E E
|---------------------------------|------------------||
|---------------------------------|-----------------o||
|---------------------------------|------------------||
|---------------------------------|------------------||
|---------------------------------|---5-4---7-5-4-5-o||
|-2-2-2-2-2-2-1-1-2-2-2-2-2-2-1-1-|-5-----5----------||


 0:28
 2/4       4/4
  Gtr I
            PM----------------------------------------------|
  E E E E   S S S S S S S S S S S S S S S S   S S S S S S S S E E E E
|---------|---------------------------------|--------------------------|
|-----6-7-|---------------------------------|---------------------6-7--|
|---------|---------------------------------|-----------------3-3------|
|-3-3-----|---------------------------------|--------------------------|
|---------|---------------------------------|--------------------------|
|---------|-2-2-2-2-2-2-2-2-2-2-2-2-2-2-2-2-|-2-2-2-2-2-2-2-2----------|
|
| Gtr II
|           PM----------------------------------------------|
| H         S S S S S S S S S S S S S S S S   S S S S S S S S E E E E
|---------|---------------------------------|--------------------------|
|---------|---------------------------------|---------------------6-7--|
|---------|---------------------------------|-----------------3-3------|
|---------|---------------------------------|--------------------------|
|---------|---------------------------------|--------------------------|
|---------|-2-2-2-2-2-2-2-2-2-2-2-2-2-2-2-2-|-2-2-2-2-2-2-2-2----------|


  Gtrs I, II
  PM----------------------------------------------|
  S S S S S S S S S S S S S S S S   S S S S S S S S E E E E
|---------------------------------|-------------------------|
|---------------------------------|---------------------6-7-|
|---------------------------------|-----------------3-3-----|
|---------------------------------|-------------------------|
|-1-1-1-1-1-1-1-1-0-0-0-0-0-0-0-0-|-------------------------|
|---------------------------------|-2-2-2-2-2-2-2-2---------|


  PM----------------------------------------------|
  S S S S S S S S S S S S S S S S   S S S S S S S S E E E E
|---------------------------------|-------------------------|
|---------------------------------|---------------------6-7-|
|---------------------------------|-----------------3-3-----|
|---------------------------------|-------------------------|
|---------------------------------|-------------------------|
|-3-3-3-3-3-3-3-3-3-3-3-3-3-3-3-3-|-3-3-3-3-3-3-3-3---------|


  Gtr I
  E E E E E E E E   E E E E E E E E
|-----------------|-----------------|
|-----------------|-------------6-7-|
|---2-------------|---------3-3-----|
|-4---4-5---2-4-3-|---2---3---------|
|---------4-------|-4---4-----------|
|-----------------|-----------------|
|
| Gtr II
| E E E E E E E E   E E E E E E E E
|-----------------|-----------------|
|-----------------|-------------6-7-|
|---2-3-2---------|---------3-3-----|
|-----------2-4-3-|---2-3-4---------|
|-4-------4-------|-4---------------|
|-----------------|-----------------|


  Gtrs I, II
  PM----------------------------------------------|
  S S S S S S S S S S S S S S S S   S S S S S S S S E E E E
|---------------------------------|-------------------------|
|---------------------------------|---------------------6-7-|
|---------------------------------|-----------------3-3-----|
|---------------------------------|-------------------------|
|---------------------------------|-------------------------|
|-2-2-2-2-2-2-2-2-2-2-2-2-2-2-2-2-|-2-2-2-2-2-2-2-2---------|


  PM----------------------------------------------|
  S S S S S S S S S S S S S S S S   S S S S S S S S E E E E
|---------------------------------|-------------------------|
|---------------------------------|---------------------6-7-|
|---------------------------------|-----------------3-3-----|
|---------------------------------|-------------------------|
|-1-1-1-1-1-1-1-1-0-0-0-0-0-0-0-0-|-------------------------|
|---------------------------------|-2-2-2-2-2-2-2-2---------|


  PM----------------------------------------------|
  S S S S S S S S S S S S S S S S   S S S S S S S S E E E E
|---------------------------------|-------------------------|
|---------------------------------|---------------------6-7-|
|---------------------------------|-----------------3-3-----|
|---------------------------------|-------------------------|
|---------------------------------|-------------------------|
|-2-2-2-2-2-2-2-2-2-2-2-2-2-2-2-2-|-2-2-2-2-2-2-2-2---------|


 6/4
  PM--------------|       PM----|
  S S S S E E S S S S E E S S S S E E
|-------------------------------------|
|-------------------------------------|
|-------------------------------------|
|-------------------------------------|
|---------------------3-2---------1-0-|
|-6-6-6-6-5-4-5-5-5-5-----4-4-4-4-----|


 0:46
 4/4
     PM----------------------------|      PM----------|      PM--|
     |-3-|                                |-3-|              |-3-|
  Q  S S S E E E E   E E E E E E E E   Q  S S S E E E E   Q  S S S E E E E
|------------------|-----------------|------------------|------------------|
|------------------|-----------------|------------------|------------------|
|------------------|-----------------|------------------|------------------|
|------------------|-----------------|------------------|------------------|
|-5----------------|-----------------|-5----------------|-4--------------4-|
|----1-1-1-1-2-3-4-|-5-4-3-2-1-2-3-4-|----1-1-1-1-3-4-5-|----1-1-1-1-3-1---|


     PM----------------------------|      PM----------|
     |-3-|                                |-3-|
  Q  S S S E E E E   E E E E E E E E   Q  S S S E E E E   E E E E E E E E
|------------------|-----------------|------------------|-----------------|
|------------------|-----------------|------------------|-----------------|
|------------------|-----------------|------------------|-----------------|
|------------------|-----------------|------------------|-----------------|
|-5----------------|-----------------|-5----------------|-5---5---6---5---|
|----1-1-1-1-2-3-4-|-5-4-3-2-1-2-3-4-|----1-1-1-1-3-4-5-|---3---3---3---3-|


     PM----------------------------|      PM----------|      PM--|
     |-3-|                                |-3-|              |-3-|
  Q  S S S E E E E   E E E E E E E E   Q  S S S E E E E   Q  S S S E E E E
|------------------|-----------------|------------------|-------------------|
|------------------|-----------------|------------------|-------------------|
|------------------|-----------------|------------------|-------------------|
|------------------|-----------------|------------------|-------------------|
|-5----------------|-----------------|-5----------------|-4--------------4--|
|----1-1-1-1-2-3-4-|-5-4-3-2-1-2-3-4-|----1-1-1-1-3-4-5-|----1-1-1-1-3-1----|


     PM----------------------------|      PM----------|     PM--------|
     |-3-|                                |-3-|
  Q  S S S E E E E   E E E E E E E E   Q  S S S E E E E   E S S S S S S Q  Q
|------------------|-----------------|------------------|----------------------|
|------------------|-----------------|------------------|----------------------|
|------------------|-----------------|------------------|----------------------|
|------------------|-----------------|------------------|----------------------|
|-5----------------|-----------------|-5----------------|-4-------------5------|
|----1-1-1-1-2-3-4-|-5-4-3-2-1-2-3-4-|----1-1-1-1-3-4-5-|---1-1-1-1-1-1--------|


 1:05
  PM----------------------------------------------|
  S S S S S S S S S S S S S S S S   S S S S S S S S E E E E
|---------------------------------|-------------------------|
|---------------------------------|---------------------6-7-|
|---------------------------------|-----------------3-3-----|
|---------------------------------|-------------------------|
|---------------------------------|-------------------------|
|-2-2-2-2-2-2-2-2-2-2-2-2-2-2-2-2-|-2-2-2-2-2-2-2-2---------|


  PM----------------------------------------------|
  S S S S S S S S S S S S S S S S   S S S S S S S S E E E E
|---------------------------------|-------------------------|
|---------------------------------|---------------------6-7-|
|---------------------------------|-----------------3-3-----|
|---------------------------------|-------------------------|
|-1-1-1-1-1-1-1-1-0-0-0-0-0-0-0-0-|-------------------------|
|---------------------------------|-2-2-2-2-2-2-2-2---------|


  PM----------------------------------------------|
  S S S S S S S S S S S S S S S S   S S S S S S S S E E E E
|---------------------------------|-------------------------|
|---------------------------------|---------------------6-7-|
|---------------------------------|-----------------3-3-----|
|---------------------------------|-------------------------|
|---------------------------------|-------------------------|
|-2-2-2-2-2-2-2-2-2-2-2-2-2-2-2-2-|-2-2-2-2-2-2-2-2---------|


  Gtr I
  E E E E E E E E   E E E E E E E E
|-----------------|-------------3-4-|
|-----------------|---------2-2-----|
|---2-------------|-----------------|
|-4---3-4---2-4-3-|---2---3---------|
|---------4-------|-4---4-----------|
|-----------------|-----------------|
|
| Gtr II
| E E E E E E E E   E E E E E E E E
|-----------------|-----------------|
|-----------------|-------------6-7-|
|---2-3-2---------|---------3-3-----|
|-----------2-4-3-|---2-3-4---------|
|-4-------4-------|-4---------------|
|-----------------|-----------------|


  PM--------------------------------------------------|
  S S S S S S S S S S S S S S S S   S S S S S S S S E E E E
|---------------------------------|---------------------3-4-|
|---------------------------------|-----------------2-2-----|
|---------------------------------|-------------------------|
|---------------------------------|-------------------------|
|---------------------------------|-------------------------|
|-2-2-2-2-2-2-2-2-2-2-2-2-2-2-2-2-|-2-2-2-2-2-2-2-2---------|
|
| PM----------------------------------------------|
| S S S S S S S S S S S S S S S S   S S S S S S S S E E E E
|---------------------------------|---------------------3-5-|
|---------------------------------|-----------------3-3-----|
|---------------------------------|-------------------------|
|---------------------------------|-------------------------|
|---------------------------------|-------------------------|
|-2-2-2-2-2-2-2-2-2-2-2-2-2-2-2-2-|-2-2-2-2-2-2-2-2---------|


  PM--------------------------------------------------|
  S S S S S S S S S S S S S S S S   S S S S S S S S E E E E
|---------------------------------|---------------------3-4-|
|---------------------------------|-----------------2-2-----|
|---------------------------------|-------------------------|
|---------------------------------|-------------------------|
|-1-1-1-1-1-1-1-1-0-0-0-0-0-0-0-0-|-------------------------|
|---------------------------------|-2-2-2-2-2-2-2-2---------|
|
| PM----------------------------------------------|
| S S S S S S S S S S S S S S S S   S S S S S S S S E E E E
|---------------------------------|---------------------3-5-|
|---------------------------------|-----------------3-3-----|
|---------------------------------|-------------------------|
|---------------------------------|-------------------------|
|-1-1-1-1-1-1-1-1-0-0-0-0-0-0-0-0-|-------------------------|
|---------------------------------|-2-2-2-2-2-2-2-2---------|


  PM--------------------------------------------------|
  S S S S S S S S S S S S S S S S   S S S S S S S S E E E E
|---------------------------------|---------------------3-4-|
|---------------------------------|-----------------2-2-----|
|---------------------------------|-------------------------|
|---------------------------------|-------------------------|
|---------------------------------|-------------------------|
|-2-2-2-2-2-2-2-2-2-2-2-2-2-2-2-2-|-2-2-2-2-2-2-2-2---------|
|
| PM----------------------------------------------|
| S S S S S S S S S S S S S S S S   S S S S S S S S E E E E
|---------------------------------|-------------------------|
|---------------------------------|---------------------6-7-|
|---------------------------------|-----------------3-3-----|
|---------------------------------|-------------------------|
|---------------------------------|-------------------------|
|-2-2-2-2-2-2-2-2-2-2-2-2-2-2-2-2-|-2-2-2-2-2-2-2-2---------|


 6/4
  Gtrs I, II
  PM--------------|       PM----|
  S S S S E E S S S S E E S S S S E E
|-------------------------------------|
|-------------------------------------|
|-------------------------------------|
|-------------------------------------|
|---------------------3-2---------1-0-|
|-6-6-6-6-5-4-5-5-5-5-----4-4-4-4-----|


 1:23
 4/4
     PM----------------------------|      PM----------|      PM--|
     |-3-|                                |-3-|              |-3-|
  Q  S S S E E E E   E E E E E E E E   Q  S S S E E E E   Q  S S S E E E E
|------------------|-----------------|------------------|------------------|
|------------------|-----------------|------------------|------------------|
|------------------|-----------------|------------------|------------------|
|------------------|-----------------|------------------|------------------|
|-5----------------|-----------------|-5----------------|-4--------------4-|
|----1-1-1-1-2-3-4-|-5-4-3-2-1-2-3-4-|----1-1-1-1-3-4-5-|----1-1-1-1-3-1---|


     PM----------------------------|      PM----------|
     |-3-|                                |-3-|
  Q  S S S E E E E   E E E E E E E E   Q  S S S E E E E   E E E E E E E E
|------------------|-----------------|------------------|-----------------|
|------------------|-----------------|------------------|-----------------|
|------------------|-----------------|------------------|-----------------|
|------------------|-----------------|------------------|-----------------|
|-5----------------|-----------------|-5----------------|-5---5---6---5---|
|----1-1-1-1-2-3-4-|-5-4-3-2-1-2-3-4-|----1-1-1-1-3-4-5-|---3---3---3---3-|


     PM----------------------------|      PM----------|      PM--|
     |-3-|                                |-3-|              |-3-|
  Q  S S S E E E E   E E E E E E E E   Q  S S S E E E E   Q  S S S E E E E
|------------------|-----------------|------------------|-------------------|
|------------------|-----------------|------------------|-------------------|
|------------------|-----------------|------------------|-------------------|
|------------------|-----------------|------------------|-------------------|
|-5----------------|-----------------|-5----------------|-4--------------4--|
|----1-1-1-1-2-3-4-|-5-4-3-2-1-2-3-4-|----1-1-1-1-3-4-5-|----1-1-1-1-3-1----|


     PM----------------------------|
     |-3-|
  Q  S S S E E E E   E E E E E E E E
|------------------|-----------------|
|------------------|-----------------|
|------------------|-----------------|
|------------------|-----------------|
|-5----------------|-----------------|
|----1-1-1-1-2-3-4-|-5-4-3-2-1-2-3-4-|


     PM----------|      PM--|    PM--------|
     |-3-|
  Q  S S S E E E E   E. S S S Q  S S S S S S
|------------------|-------------------------|
|------------------|-------------------------|
|------------------|-------------------------|
|------------------|-5--------8--------------|
|-5----------------|-3--------6--------------|
|----1-1-1-1-3-4-5-|----1-1-1----2-2-2-2-2-2-|


 1:42
     PM--|    PM--------|      PM--|    PM--------|
  E. S S S Q  S S S S S S   E. S S S Q  S S S S S S
|-------------------------|-------------------------|
|-------------------------|-------------------------|
|-------------------------|-------------------------|
|-5--------7--------------|-5--------6--------------|
|-3--------5--------------|-3--------4--------------|
|----1-1-1----2-2-2-2-2-2-|----1-1-1----2-2-2-2-2-2-|


     PM--|    PM--------|     PM----------|
  E. S S S Q  S S S S S S   E E E E E E E E
|-------------------------|-----------------|
|-------------------------|-----------------|
|-------------------------|-----------------|
|-5--------8--------------|-5---------------|
|-3--------6--------------|-3---5-7-5-4-5-7-|
|----1-1-1----2-2-2-2-2-2-|---0-3-5-3-2-3-5-|


       PM--|    PM--------|      PM--|    PM--------|
    E. S S S Q  S S S S S S   E. S S S Q  S S S S S S
||--------------------------|-------------------------|
||o-------------------------|-------------------------|
||--------------------------|-------------------------|
||--5--------8--------------|-5--------7--------------|
||o-3--------6--------------|-3--------5--------------|
||-----1-1-1----2-2-2-2-2-2-|----1-1-1----2-2-2-2-2-2-|


     PM--|    PM--------|     PM----------|
  E. S S S Q  S S S S S S   E E E E E E E E
|-------------------------|---------------------||
|-------------------------|--------------------o||
|-------------------------|---------------------||
|-5--------6--------------|-5-------------------||
|-3--------4--------------|-3---5-7-5-4-5-7----o||
|----1-1-1----2-2-2-2-2-2-|---0-3-5-3-2-3-5-----||


 1:57
 5/4
  Gtr I
  PM---------------------|          PM--------------------|
  S  S S S S S S S S S S S E E Q    S S S S S S S S S S S S E E Q
|---------------------------------|---------------------------------|
|---------------------------------|---------------------------------|
|---------------------------------|---------------------------------|
|----------------------------4-3--|-------------------------6-------|
|--------------------------5-2-1--|-------------------------4-5-4---|
|-2--2-2-2-2-2-1-1-2-2-1-1-3------|-2-2-2-2-2-2-1-1-2-2-1-1---3-2---|
|
| Gtr II
|                                   PM--------------------|
| H.                       E E Q    S S S S S S S S S S S S E E Q
|---------------------------------|---------------------------------|
|---------------------------------|---------------------------------|
|---------------------------------|---------------------------------|
|----------------------------4-3--|-------------------------6-------|
|--------------------------5-2-1--|-------------------------4-5-4---|
|--------------------------3------|-2-2-2-2-2-2-1-1-2-2-1-1---3-2---|


  Gtrs I, II
  PM--------------------|          PM--------------------|
  S S S S S S S S S S S S E E Q    S S S S S S S S S S S S E E E E
|--------------------------------|---------------------------------|
|--------------------------------|---------------------------------|
|--------------------------------|---------------------------------|
|---------------------------4-3--|-------------------------4-----4-|
|-------------------------5-2-1--|-------------------------2-5-3-2-|
|-2-2-2-2-2-2-1-1-2-2-1-1-3------|-2-2-2-2-2-2-1-1-2-2-1-1---3-2---|


  PM--------------------|          PM--------------------|
  S S S S S S S S S S S S E E Q    S S S S S S S S S S S S E E Q
|--------------------------------|--------------------------------|
|--------------------------------|--------------------------------|
|--------------------------------|--------------------------------|
|---------------------------4-3--|-------------------------6------|
|-------------------------5-2-1--|-------------------------4-5-4--|
|-2-2-2-2-2-2-1-1-2-2-1-1-3------|-2-2-2-2-2-2-1-1-2-2-1-1---3-2--|


  PM--------------------|
  S S S S S S S S S S S S E E Q
|--------------------------------|
|--------------------------------|
|--------------------------------|
|---------------------------4-3--|
|-------------------------5-2-1--|
|-2-2-2-2-2-2-1-1-2-2-1-1-3------|


                                   2:08
                                   4/4
  PM--------------------|              PM--|    PM--------|
  S S S S S S S S S S S S E E E E   E. S S S Q  S S S S S S
|---------------------------------|-------------------------
|---------------------------------|-------------------------
|---------------------------------|-------------------------
|-------------------------4-----4-|-5--------8--------------
|-------------------------2-5-3-2-|-3--------6--------------
|-2-2-2-2-2-2-1-1-2-2-1-1---3-2---|----1-1-1----2-2-2-2-2-2-


 5/4
  PM--------------------|          PM--------------------|
  S S S S S S S S S S S S E E Q    S S S S S S S S S S S S E E Q
|--------------------------------|---------------------------------|
|--------------------------------|---------------------------------|
|--------------------------------|---------------------------------|
|---------------------------4-3--|-------------------------6-------|
|-------------------------5-2-1--|-------------------------4-5-4---|
|-2-2-2-2-2-2-1-1-2-2-1-1-3------|-2-2-2-2-2-2-1-1-2-2-1-1---3-2---|


  PM--------------------|          PM--------------------|
  S S S S S S S S S S S S E E Q    S S S S S S S S S S S S E E E E
|--------------------------------|---------------------------------
|--------------------------------|---------------------------------
|--------------------------------|---------------------------------
|---------------------------4-3--|-------------------------4-----4-
|-------------------------5-2-1--|-------------------------2-5-3-2-
|-2-2-2-2-2-2-1-1-2-2-1-1-3------|-2-2-2-2-2-2-1-1-2-2-1-1---3-2---


 2:15
 4/4
     PM--|    PM--------|      PM--|    PM--------|
  E. S S S Q  S S S S S S   E. S S S Q  S S S S S S
|-------------------------|-------------------------|
|-------------------------|-------------------------|
|-------------------------|-------------------------|
|-5--------8--------------|-5--------7--------------|
|-3--------6--------------|-3--------5--------------|
|----1-1-1----2-2-2-2-2-2-|----1-1-1----2-2-2-2-2-2-|


   5/4
    PM--------------------|          PM--------------------|
    S S S S S S S S S S S S E E Q    S S S S S S S S S S S S E E Q
||---------------------------------|--------------------------------|
||o--------------------------------|--------------------------------|
||---------------------------------|--------------------------------|
||----------------------------4-3--|-------------------------6------|
||o-------------------------5-2-1--|-------------------------4-5-4--|
||--2-2-2-2-2-2-1-1-2-2-1-1-3------|-2-2-2-2-2-2-1-1-2-2-1-1---3-2--|


  PM--------------------|          PM--------------------|
  S S S S S S S S S S S S E E Q    S S S S S S S S S S S S E E E E
|--------------------------------|----------------------------------||
|--------------------------------|---------------------------------o||
|--------------------------------|----------------------------------||
|---------------------------4-3--|-------------------------4-----4--||
|-------------------------5-2-1--|-------------------------2-5-3-2-o||
|-2-2-2-2-2-2-1-1-2-2-1-1-3------|-2-2-2-2-2-2-1-1-2-2-1-1---3-2----||


   2:29
   4/4
       PM--|    PM--------|      PM--|    PM--------|
    E. S S S Q  S S S S S S   E. S S S Q  S S S S S S
||--------------------------|-------------------------|
||o-------------------------|-------------------------|
||--------------------------|-------------------------|
||--5--------8--------------|-5--------7--------------|
||o-3--------6--------------|-3--------5--------------|
||-----1-1-1----2-2-2-2-2-2-|----1-1-1----2-2-2-2-2-2-|


     PM--|    PM--------|     PM----------|
  E. S S S Q  S S S S S S   E E E E E E E E
|-------------------------|-------------------||
|-------------------------|------------------o||
|-------------------------|-------------------||
|-5--------8--------------|-5-----------------||
|-3--------6--------------|-3---5-7-5-4-5-7--o||
|----1-1-1----2-2-2-2-2-2-|---0-3-5-3-2-3-5---||


 2:39
 6/4
  Gtr I
  PM---------------------|
  S  S S S S S S S S S S S Q  Q  Q    W
|-----------------------------------|------*|
|-----------------------------------|------*|
|-----------------------------------|------*|
|-----------------------------4--3--|------*|
|--------------------------5--2--1--|------*|
|-2--2-2-2-2-2-1-1-2-2-1-1-3--------|------*|
|
| Gtr II
| H.                       Q  Q  Q    W
|-----------------------------------|------*|
|-----------------------------------|------*|
|-----------------------------------|------*|
|-----------------------------4--3--|------*|
|--------------------------5--2--1--|------*|
|--------------------------3--------|------*|

Duration Legend
---------------
W - whole; H - half; Q - quarter; E - 8th; S - 16th;
T - 32nd; X - 64th; a - acciaccatura
+ - note tied to previous; . - note dotted; .. - note double dotted
Uncapitalized letters represent notes that are staccato (1/2 duration)
Irregular groupings are notated above the duration line
Duration letters will always appear directly above the note/fret number it
represents the duration for.  Duration letters with no fret number below them
represent rests.  Multi-bar rests are notated in the form Wxn, where n is the
number of bars to rest for.  Low melody durations appear below the staff

Tablature Legend
----------------
 h   - hammer-on
 p   - pull-off
 b   - bend
 pb  - pre-bend
 r   - bend release (if no number after the r, then release immediately)
 /  - slide into or out of (from/to "nowhere")
 s   - legato slide
 S   - shift slide
<n>  - natural harmonic
[n]  - artificial harmonic
n(n) - tapped harmonic
 ~   - vibrato
 tr  - trill
 T   - tap
 TP  - trem. picking
 PM  - palm muting
n/  - tremolo bar dip; n = amount to dip
 n  - tremolo bar down
 n/  - tremolo bar up
/n  - tremolo bar inverted dip
 =   - hold bend; also acts as connecting device for hammers/pulls
 <>  - volume swell (louder/softer)
 x   - on rhythm slash represents muted slash
 o   - on rhythm slash represents single note slash

Misc Legend
-----------
 |  - bar
||  - double bar
||o - repeat start
o|| - repeat end
*|  - double bar (ending)
 :  - bar (freetime)
 $  - Segno
 &  - Coda
Tempo markers - <E/E./Q/Q./H/H.> = BPM(8/16=s8/s16),
where s8 = swing 8ths, s16 = swing 16ths

  Visit MetalTabs.com for more metal tablature

bottom separator

Contact Us | Privacy Policy | Disclaimer | Legal Notice
Copyright © 2001-2014 MetalTabs.com. All Rights Reserved.