top separator

Home

Forum

What's New

Submit a Tab

FAQ

Links

Contact Us

Link to Us

MuSpy.com

MetalTabs.com logo

Bands

0-9

A

B

C

D

E

F

G

H

I

J

K

L

M

N

O

P

Q

R

S

T

U

V

W

X

Y

Z

Search

What

Where
 

As I Lay Dying - "The Beginning" Guitar Tab

Plain Text Version
More As I Lay Dying Tabs

Hits: 9914
Rated: 4.00 out of 5 (10 votes)
Updated: 2005-03-20 15:06:37

 

By:

Kalmahswamp

sendpm.gif

email.gif

Important note
This tab is available online because we obtained explicit permission from As I Lay Dying or their label.


#----------------------------------PLEASE NOTE---------------------------------#
#This file is the author's own work and represents their interpretation of the #
#song. You may only use this file for private study, scholarship, or research. #
#Unless specified otherwise, this is NOT an official tab from the band members.#
#------------------------------------------------------------------------------#

  Visit MetalTabs.com for more metal tablature
  
Band:  As I Lay Dying
Album: Frail Words Collapse
Song:  The Beginning

Copyright (c)  Metal Blade 2003

Transcribed By: Paul Sullivan
Email:          kalmahswamp@yahoo.com



Tuning C A D G B E + D A D G B E

Intro (rhythm)
E-------------------------------------------------------------------|
B-------------------------------------------------------------------|
G-------------------------------------------------------------------|
D-------------------------------------------------------------------|
A-----3-2---3-2---------0-0-0-0-0-0----0-0-0-0-0-0------------------|
D-5-5-----5-----5-5-5-5-0-0-0-0-0-0----0-0-0-0-0-0------------------|


Intro (lead)
E-------------------------------------3-------3---------------------|
B-8-8-8p6---6-6-6p4---4-3---3-----------4-------4-------------------|
G---------8---------7-----5---5-3-1-1-----1-1-----------------------|
D-------------------------------------------------------------------|
A-------------------------------------------------------------------|
C-------------------------------------------------------------------|

PART 1
E-------------------------------------------------------------------|
B-------------------------------------------------------------------|
G-------------------------------------------------------------------|
D-------------------------------------------------------------------|
A-6--8--5-------5-5h6-----5-5h6-------------------------------------|
C-8-10--7---0-0-------0-0-------0-0-0-0-0-0-0-0---------------------|

PART 2:

E---------------------------------------------------------------------
B---------------------------------------------------------------------
G---------------------------------------------------------------------
D---------------------------------------------------------------------
A-0-------------------------------------------0-----------------------
C-0-0-0-0-0-0-0-0-0-0-0-0-0-0-0-0-0-0-0-0-0-0-0-0-0-0-0-0-0-0-0-0-0-0-

----------------------------------------------------------------------
----------------------------------------------------------------------
----------------------------------------------------------------------
-----------------------6-5h6---6-5h6----------------------------------
---------------------6-------5-------0--------------------------------
-0-0-0-0-0-0-0-0-0-0-8-------7-------0-0-0-0-0-0-0-0-0-0-0-0-0-0-0-0--

-------------------------------------------------------------------|
-------------------------------------------------------------------|
-------------------------------------------------------------------|
-------------------------------------------------------------------|
-------------------------------------------------------------------|
-0-0-0-0-0-0-------------------------------------------------------|


PART 2 Lead:
E-------------------------------------3-3h4p3---3-3h4p3-1------------|
B-8-8-8p6---6-6-6p4---4-3---3-----------------4----------------------|
G---------8---------7-----5---5-3-1-1--------------------------------|
D--------------------------------------------------------------------|
A--------------------------------------------------------------------|
C--------------------------------------------------------------------|


PART 3
E-------------------------------------------------------------------|
B-------------------------------------------------------------------|
G-------------------------------------------------------------------|
D---6-5h6---6-5h6---6-5h6-8-6-5-6-5-3-------------------------------|
A-3-------5-------6-------------------------------------------------|
C-5-------7-------8-------------------------------------------------|


PART 4
E-------------------------------------------------------------------------|
B-------------------------------------------------------------------------|
G-------------------------------------------------------------------------|
D-3----------------5----------------6----------------8-----5-3-1-3-1-0----|
A-3----------------5----------------6----------------8--------------------|
C-0-0-0--0-0-0-0-0-0-0-0--0-0-0-0-0-0-0-0--0-0-0-0-0-0-0-0----------------|

PART 3

PART 5
E-------------------------------------------------------------------|
B-------------------------------------------------------------------|
G-------------------------------------------------------------------|
D-------------------------------------------------------------------|
A-----3-2h3-----3-2h3-----3-2h3-5-5-5-5-3---------------------------|
D-0-0-------0-0-------0-0-------------------------------------------|

PART 1

PART 3

PART 5

  Visit MetalTabs.com for more metal tablature

bottom separator

Contact Us | Privacy Policy | Disclaimer | Legal Notice
Copyright © 2001-2014 MetalTabs.com. All Rights Reserved.