top separator

Home

Forum

FAQ

Contact Us

Link to Us

MetalTabs.com logo

Bands

0-9

A

B

C

D

E

F

G

H

I

J

K

L

M

N

O

P

Q

R

S

T

U

V

W

X

Y

Z

Cradle of Filth - "No Time To Cry (* Sisters of Mercy cover)" Guitar Tab

Plain Text Version
More Cradle of Filth Tabs

Hits: 8523
Rated: 5.00 out of 5 (5 votes)
Updated: 2005-03-20 15:03:26

By:


#----------------------------------PLEASE NOTE---------------------------------#
#This file is the author's own work and represents their interpretation of the #
#song. You may only use this file for private study, scholarship, or research. #
#Unless specified otherwise, this is NOT an official tab from the band members.#
#------------------------------------------------------------------------------#

  Visit MetalTabs.com for more metal tablature
  
Band:  Cradle of Filth
Album: Bitter Suites to Succubi
Song:  No Time To Cry

Copyright   Abracadaver-2001
Version 1.0 - 03/12/2005

Transcribed By: Patrick, from Brazil
Email:          patrickmortis@hotmail.com


.  - palm mute           /  - slide up to
\  - slide down to       ~  - vibrato
h  - hammer on           b  - Bend
p  - pull off            Suffixes for bend
t  - tap                 f  - full bend    h - half bend
ph - pinched harmonic    q  - quarter bend t - tap bend
*  - see comment         ^  - Hold bend    r release bend
x  - Stuccatto           ~  - vibrato bend
,  - slight palm mute    () - ghost note, sustained note
"  - tremolo note        tr - Trill
LR - let ring

Tunning: dAFCGD

        Song Structure:
        Riff1  x4 w/ Keyboards A1 x2, A2 x2
        Riff2  x2
        Riff3  x2
        Riff4  x2
        Riff5  x4
        Fill1  x1
        Violin x1
        Riff4  x2
        Riff5  x4
        Fill1  x1
        Fill2  x1
        Riff3  x2
        Riif4  x2
        Riff5  x4
        Finish x1


  Riff 1(with delay)
  |-------------------------------|
  |-------------------------------|
  |-------------------------------|
  |-------------------------------|
  |-9-12-11-12------9-12-11-12----|
  |------------10--------------7--|

  Keyboards A1                     Keyboards A2
  |-------------------------------|-------------------------------|
  |-14---------15---14---------15-|-14---------12---14---------15-|
  |-------------------------------|-------------------------------|
  |-11---------12---11---------12-|-11---------9----11---------12-|
  |-------------------------------|-------------------------------|
  |-------------------------------|-------------------------------|

  Riff2
  Guitar 1:
  |-----------------------------------------------------------------|
  |-9-9-9-9-9-------------------------------------------------------|
  |-8-8-8-8-8-6-8-9-9-9-------------------------------------6-------|
  |-6-6-6-6-6-----------9-9-8-8-9-------9---8---9-------8-9---9-8-9-|
  |-------------------------------4-4-4---4---4---6-6-6-------------|
  |-----------------------------------------------------------------|
                                          .   .

  Guitar 2:
  |-----------------------------------------------------------------|
  |-9-9-9-9-9-9-9---------------------------------------------------|
  |-8-8-8-8-8-8-8---------------------------------------------------|
  |-6-6-6-6-6-6-6-9-9-9-9-9-9-9-9-6-6-6-6-6-6-6-6-8-8-8-8-8-8-8-8-8-|
  |---------------7-7-7-7-7-7-7-7-4-4-4-4-4-4-4-4-6-6-6-6-6-6-6-6-6-|
  |-----------------------------------------------------------------|

  Riff3
  Guitar 1
  |--------------------------------------------------------------------|
  |--------------------------------------------------------------------|
  |--------------------------------------------------------------------|
  |-6--6-6-6-----------------------6-------------8-------9-----8-----8-|
  |-6--6-6-6-6\2-2-----2---1---2---4-4-4-4-2/4\2/6-66666-6-666-6-666-6-|
  |-4--4-4-4-----0-0-0---0---0---0-------------------------------------|
       . . .       . .   .   .   .   . . .         .....   ...   ...

  Guitar 2
  |--------------------------------------------------------------------|
  |--------------------------------------------------------------------|
  |--------------------------------------------------------------------|
  |--------------------------------6-----------4/8-------9-----8-----8-|
  |-6------------2-----2---1---2---4-4-4-4-4-4-2/6-66666-6-666-6-666-6-|
  |-4--4-4-4-4-4-0-0-0---0---0---0-------------------------------------|
       . . . . .   . .   .   .   .   . . . . .     .....   ...   ...

  Riff4
  Guitar 1
  |-----------------------------------------------------------|
  |-----------------------------------------------------------|
  |----------------------------------------------6tr----------|
  |-6tr9tr8tr9tr---9tr8tr9tr---9tr8tr9tr---8tr9tr---9tr8tr9tr-|
  |-------------7tr---------4tr---------6tr-------------------|
  |-----------------------------------------------------------|

  Guitar 2
  |-----------------------------------------------------------|
  |-----------------------------------------------------------|
  |-----------------------------------------------------------|
  |-----------------------------------------------------------|
  |-------------------------4tr---------6tr4tr6tr7tr6tr4tr6tr-|
  |-4tr7tr6tr7tr0tr7tr6tr7tr---7tr6tr7tr----------------------|
  PM.........................................................

  Riff5
  Guitar 1
  |-----------------------------------------|
  |-----------------------------------------|
  |-----------------------------------------|
  |-------------4-----4-----9-----9tr8tr----|
  |-6-----6-----2-2-2-2-2-2-7-7-7-------9tr-|
  |-4-4-4-4-4-4-----------------------------|
      . .   . .   . .   . .   . .

  Guitar 2
  |-----------------------------------------|
  |-----------------------------------------|
  |-----------------------------------------|
  |-------------4-----4---------------------|
  |-6-----6-----2-2-2-2-2-2-2-----2tr1tr----|
  |-4-4-4-4-4-4-------------0-0-0-------2tr-|
      . .   . .   . .   . .   . .

  Fill 1
  |-----------------------------|x1
  |-----------------------------|
  |-----------------------------|
  |-6--6--6--6--\\\\------------|
  |-4--4--4--4--\\\\*pick slide-|
  |-----------------------------|
       ,  ,  , <= slight palm mute

  (clean)
  |---9---7---------------|x4
  |-----------10---10--9--|
  |-6---6---6----6--------|
  |--------------------6--|
  |-----------------------|
  |-----------------------|
                       LR

  Violin
  |------------------------------------------|
  |------------------------------------------|
  |------------------------------------------|
  |-----------6-4------------------6-4-----5-|
  |--------7------7--6-------4-6-7-----7-6---|
  |-4--6-7-------------6--7------------------|


  Fill2
  |--------------------|x1
  |--------------------|
  |--------------------|
  |--4----4----4----4--|
  |--4----4----4----4--|
  |--2----2----2----2--|
     .    .    .    .

  (clean)
  |---14--12-----------------|x4
  |------------15---15--14---|
  |-11--11--11---11----------|
  |---------------------11---|
  |--------------------------|
  |--------------------------|
                        LR

  Finish
  C|--6--|
  G|--6--|
  D|--4--|
     LR

  Visit MetalTabs.com for more metal tablature

bottom separator

Contact Us | Privacy Policy | Disclaimer
Copyright © 2001-2014 MetalTabs.com. All Rights Reserved.