top separator

Home

Forum

FAQ

Contact Us

Link to Us

MetalTabs.com logo

Bands

0-9

A

B

C

D

E

F

G

H

I

J

K

L

M

N

O

P

Q

R

S

T

U

V

W

X

Y

Z

Cradle of Filth - "Sin Deep My Wicked Angel" Guitar Tab

Plain Text Version
More Cradle of Filth Tabs

Hits: 2375
Rated: 5.00 out of 5 (2 votes)
Updated: 2005-03-20 15:03:05

By:


#----------------------------------PLEASE NOTE---------------------------------#
#This file is the author's own work and represents their interpretation of the #
#song. You may only use this file for private study, scholarship, or research. #
#Unless specified otherwise, this is NOT an official tab from the band members.#
#------------------------------------------------------------------------------#

  Visit MetalTabs.com for more metal tablature
  
Band:  Cradle of Filth
Album: Bitter Suites to Succubi
Song:  Sin Deep My Wicked Angel

Copyright   Abracadaver-2001
Version 1.0 - 03/12/2005

Transcribed By: Patrick, from Brazil
Email:          patrickmortis@hotmail.com


.  - palm mute           /  - slide up to
\  - slide down to       ~  - vibrato
h  - hammer on           b  - Bend
p  - pull off            Suffixes for bend
t  - tap                 f  - full bend    h - half bend
ph - pinched harmonic    q  - quarter bend t - tap bend
*  - see comment         ^  - Hold bend    r release bend
x  - Stuccatto           ~  - vibrato bend
,  - slight palm mute    () - ghost note, sustained note
"  - tremolo note        <> - Trill
LR - let ring

Tunning: dAFCGC (Dropped C)

                     Song Structure:
------------------------------------------------------------
|--Time---|----Guitar 1----|---Guitar 2---|----Guitar 3----|
| (0:11)  | Keyboards A x1 |              |                |
| (0:45)  |  Violin A   x1 |              |                |
| (0:55)  |  Violin A   x3 |  Violin B x1 |                |
| (1:23)  |  Violin A   x2 |  Violin C x1 | Keyboards B x2 |
| (1:42)  | Keyboards C x2 |  Violin D x1 | Keyboards B x2 |
| (2:04)  |                |  Violin E x1 | Keyboards D x1 |
------------------------------------------------------------


  Keyboards  A
   0:11  0:30
  |------------|
  |------------|
  |------------|
  |------------|
  |------------|
  |--0-----0---|
    LR     LR

  Violin A
   0:45
  |---------------|
  |---------------|
  |---------------|
  |---------------|
  |-5---3---0---3-|
  |---------------|

  Violin B
   0:55
  |---------------------------------------------------------|
  |--------------------------10---------------10--13--12----|
  |-10--9-10-9--12-10-10--9-----12-10-10--9-7------------12-|
  |---------------------------------------------------------|
  |---------------------------------------------------------|
  |---------------------------------------------------------|

  Violin C
   1:23
  |----------------------------------------|
  |---------10-13--12---------10-13--12----|
  |-10--9-7-----------12-10-9-----------12-|
  |----------------------------------------|
  |----------------------------------------|
  |----------------------------------------|

  Violin D
   1:42
  |-------------------------------------|
  |-------10-13-12----------10-13-12----|
  |-10--9----------12-10--9----------12-|
  |-------------------------------------|
  |-------------------------------------|
  |-------------------------------------|


  Keyboards B
   1:23
  |-----------|
  |-----------|
  |-----------|
  |-----------|
  |--------0--|
  |-0--3-2----|

  Keyboards C(*clean guitar with Palm Mute)
   1:42
  |---------------------------------|
  |-----6-5----6--------------------|
  |---5------5---7------5-4-----5---|
  |-7------7----------5-------5---7-|
  |-----------------7-------7-------|
  |---------------------------------|

  Keyboards D
   2:04
  |--------------------------------------------------------|
  |--/10-/13--/6--/11-/14---/14--/11--/11-/11-/14--/17-/17-|
  |--------------------------------------------------------|
  |--/7--/10--/3--/8--/11---/11--/8---/8--/8--/11--/14-/14-|
  |--------------------------------------------------------|
  |--------------------------------------------------------|

  Violin E
   2:04
  |--------------------------------------------------|
  |--------------------------------------------------|
  |--------------------------------------------------|
  |--------------------------------------------------|
  |------/9---/9--/5--/9\5-/8-/11-/9--/15--/12\10----|
  |-----------------------------------------------\0-|

End

  Visit MetalTabs.com for more metal tablature

bottom separator

Contact Us | Privacy Policy | Disclaimer
Copyright © 2001-2014 MetalTabs.com. All Rights Reserved.