top separator

Home

Forum

What's New

Submit a Tab

FAQ

Links

Contact Us

Link to Us

MetalTabs.com logo

Bands

0-9

A

B

C

D

E

F

G

H

I

J

K

L

M

N

O

P

Q

R

S

T

U

V

W

X

Y

Z

Search

What

Where
 

Sodom - "Incest" Guitar Tab

Plain Text Version
More Sodom Tabs

Hits: 5289
Updated: 2005-03-20 15:01:13

 

By:

MetalThrashingMad

sendpm.gif

email.gif

Important note
This tab is available online because we obtained explicit permission from Sodom or their label.


#----------------------------------PLEASE NOTE---------------------------------#
#This file is the author's own work and represents their interpretation of the #
#song. You may only use this file for private study, scholarship, or research. #
#Unless specified otherwise, this is NOT an official tab from the band members.#
#------------------------------------------------------------------------------#

  Visit MetalTabs.com for more metal tablature
  
Band: Sodom
Album: Agent Orange
Song: Incest
Copyright (c) Steamhammer 1990
Version: 1.0 - 3-12-05
Transcribed By: Steve - MetalThrashingMad
Email: Thrasher502@hotmail.com

* - palm mute                    /
s - slide                       /
~ - vibrato                    /   - bend  up as indicated
h - hammer on
p - pull off                   \
t - right hand tapping          \
( ) - sustained note             \ - bend down as indicated
[] - side note
% - end riff
nh - natural harmonic            |
ph - pinched harmonic            |
tr - trill                       | - pre-bend as indicated
# - percussive note
.+ - continue to next staff      - - - - - hold note as indicated
Suffixes for bends:
5 - half step
1 - whole step
1.5 - step and a half
2 - two steps
2.5 - two and a half steps
[w/bar] - use tremolo bar

Gitarre- Frank "Blackfire" Gosdzik
Tuning E A D G B E


================================================================================


|---------------------------------|
|---------------------------------|
|---------------------------------|
|---------------------------------|
|-5---5---5---5---5---5---5---5---|
|-6-0-6-0-6-0-6-0-6-0-6-0-6-0-6-0-|
    *   *   *   *   *   *   *   *


[play 3 times]
|---------------------------------------------------------------------|
|---------------------------------------------------------------------|
|---------------------------------------------------------------------|
|------------------4--------------------------------------------------|
|-5----------------2-2222-2222-2222-3----------------3----------------|
|-3-3333-3333-3333------------------1-1111-1111-1111-1-1111-1111-1111-|
    **** **** ****   **** **** ****   **** **** ****   **** **** ****


|------------------------------------------------------------------------|
|------------------------------------------------------------------------|
|------------------------------------------------------------------------|
|------------------4-----------------------------------------------------|
|-5----------------2-2222-2222-2222-3----------------3-----------------5-|
|-3-3333-3333-3333------------------1-1111-1111-1111-1-1111-1111-1111--3-|
    **** **** ****   **** **** ****   **** **** ****   **** **** ****


[play 3 times]
|------------------------------------------------------------------|
|------------------------------------------------------------------|
|------------------------------------------------------------------|
|------------------------------------------------------------------|
|-2----------------2----------------3----------------4------7------|
|-3-0000-0000-0000-3-0000-0000-0000-1-0000-0000-0000-6-0000-5-0000-|
    **** **** ****   **** **** ****   **** **** ****   ****   ****


|---------------------------------------------------------------------|
|---------------------------------------------------------------------|
|---------------------------------------------------------------------|
|---------------------------------------------------------------------|
|-2----------------2----------------3----------------4------7-------2-|
|-3-0000-0000-0000-3-0000-0000-0000-1-0000-0000-0000-6-0000-5-0000--0-|
    **** **** ****   **** **** ****   **** **** ****   ****   ****


[play 4 times]
|------------------------------------------------------------------|
|------------------------------------------------------------------|
|------------------------------------------------------------------|
|------------------------------------------------------------------|
|-2----------------2----------------3----------------4------7------|
|-3-0000-0000-0000-3-0000-0000-0000-1-0000-0000-0000-6-0000-5-0000-|
    **** **** ****   **** **** ****   **** **** ****   ****   ****


[play 4 times]
|--------------------------------------------------|
|--------------------------------------------------|
|--------------------------------------------------|
|--------------------------------------------------|
|-5s4---------5s4---------5s4---------5s4-----7--9-|
|-3s2-22-2222-3s2-22-2222-3s2-22-2222-3s2-22--5--7-|
      ** ****     ** ****     ** ****     **


[play 4 times]
|---------------------------------------------------------------------|
|---------------------------------------------------------------------|
|---------------------------------------------------------------------|
|------------------4--------------------------------------------------|
|-5----------------2-2222-2222-2222-3----------------3----------------|
|-3-3333-3333-3333------------------1-1111-1111-1111-1-1111-1111-1111-|
    **** **** ****   **** **** ****   **** **** ****   **** **** ****


[play 4 times]
|-------------------------------------------------------------------------|
|-------------------------------------------------------------------------|
|-------------------------------------------------------------------------|
|-------------------------------------------------------------------------|
|-5s4----------------5s4----------------5s4----------------5s4-------7--9-|
|-3s2-2222-2222-2222-3s2-2222-2222-2222-3s2-2222-2222-2222-3s2-2222--5--7-|
      **** **** ****     **** **** ****     **** **** ****     ****


[play 4 times]
|------------------------------------------------------------------|
|------------------------------------------------------------------|
|------------------------------------------------------------------|
|------------------------------------------------------------------|
|-2----------------2----------------3----------------4------7------|
|-3-0000-0000-0000-3-0000-0000-0000-1-0000-0000-0000-6-0000-5-0000-|
    **** **** ****   **** **** ****   **** **** ****   ****   ****


[play 3 times]
|---------------------------------------------------------------------|
|---------------------------------------------------------------------|
|---------------------------------------------------------------------|
|------------------4--------------------------------------------------|
|-5----------------2-2222-2222-2222-3----------------3----------------|
|-3-3333-3333-3333------------------1-1111-1111-1111-1-1111-1111-1111-|
    **** **** ****   **** **** ****   **** **** ****   **** **** ****


|------------------------------------------------------------------------|
|------------------------------------------------------------------------|
|------------------------------------------------------------------------|
|------------------4-----------------------------------------------------|
|-5----------------2-2222-2222-2222-3----------------3-----------------5-|
|-3-3333-3333-3333------------------1-1111-1111-1111-1-1111-1111-1111--3-|
    **** **** ****   **** **** ****   **** **** ****   **** **** ****


|--------------------------|
|--------------------------|
|--------------------------|
|--------------------------|
|-5--2---------------------|
|-3--0-0000-0000-0000-0000-|
       **** **** **** ****


|-------------------------------------------|
|-------------------------------------------|
|-------------------------------------------|
|---------------5-4-3-------------4-5-------|
|-2---------4-5-3-2-1---2---------2-1-----5-|
|-0000-0000-2-3---------0000-0000-----2-0-3-|
   *** ****     * *     **** ****     * *


|-------------------------------------------|
|-------------------------------------------|
|-------------------------------------------|
|---------------5-4-3-------------4-5-------|
|-2---------4-5-3-2-1---2---------2-1-----5-|
|-0000-0000-2-3---------0000-0000-----0-2-3-|
   *** ****     * *     **** ****     * *


[play twice]
|-------------------------------------------|
|-------------------------------------------|
|-------------------------------------------|
|-------------------------------------------|
|---------------3-2-1-------------2-1-------|
|-0000-0000-2-3---------0000-0000-----0-2-3-|
  **** ****             **** ****


[play 4 times]
|-------------------------------------------|
|-------------------------------------------|
|-------------------------------------------|
|---------------3-2-1-------------2-1-------|
|-----------2-3-----------------------0-2-3-|
|-0000-0000-------------0000-0000-----------|
  **** ****             **** ****


|---------------------------------------------------------------|
|---------------------------------------------------------------|
|---------------------------------------------------------------|
|---------------------------------------------------------------|
|-2-------5-2-------5-2-------5-2-------5-2-------5-2-------5-2-|
|-0-------3-0-------3-0-------3-0-------3-0-------3-0-------3-0-|



[play 4 times]
|------------------------------------------------------------------|
|------------------------------------------------------------------|
|------------------------------------------------------------------|
|------------------------------------------------------------------|
|-2----------------2----------------3----------------4------7------|
|-3-0000-0000-0000-3-0000-0000-0000-1-0000-0000-0000-6-0000-5-0000-|
    **** **** ****   **** **** ****   **** **** ****   ****   ****


[play 4 times]
|-------------------------------------------------------------------------|
|-------------------------------------------------------------------------|
|-------------------------------------------------------------------------|
|-------------------------------------------------------------------------|
|-5s4----------------5s4----------------5s4----------------5s4-------7--9-|
|-3s2-2222-2222-2222-3s2-2222-2222-2222-3s2-2222-2222-2222-3s2-2222--5--7-|
      **** **** ****     **** **** ****     **** **** ****     ****


[play 3 times]
|---------------------------------------------------------------------|
|---------------------------------------------------------------------|
|---------------------------------------------------------------------|
|------------------4--------------------------------------------------|
|-5----------------2-2222-2222-2222-3----------------3----------------|
|-3-3333-3333-3333------------------1-1111-1111-1111-1-1111-1111-1111-|
    **** **** ****   **** **** ****   **** **** ****   **** **** ****


|------------------------------------------------------------------------|
|------------------------------------------------------------------------|
|------------------------------------------------------------------------|
|------------------4-----------------------------------------------------|
|-5----------------2-2222-2222-2222-3----------------3-----------------5-|
|-3-3333-3333-3333------------------1-1111-1111-1111-1-1111-1111-1111--3-|
    **** **** ****   **** **** ****   **** **** ****   **** **** ****


|-----------------------------------------|
|-----------------------------------------|
|-----------------------------------------|
|-----------------------------------------|
|-2-------5-2-------5-2-------5-2-------5-|
|-0-------3-0-------3-0-------3-0-------3-|

END

  Visit MetalTabs.com for more metal tablature

bottom separator

Contact Us | Privacy Policy | Disclaimer | Legal Notice
Copyright © 2001-2014 MetalTabs.com. All Rights Reserved.